  0
SECTION
  2
HEADER
  9
$ACADVER
  1
AC1015
  9
$ACADMAINTVER
 70
    20
  9
$DWGCODEPAGE
  3
ANSI_1252
  9
$INSBASE
 10
0.0
 20
0.0
 30
0.0
  9
$EXTMIN
 10
-28.23004819643037
 20
-61.96048988473001
 30
0.0
  9
$EXTMAX
 10
119.2891880973931
 20
22.03951011526999
 30
0.0
  9
$LIMMIN
 10
0.0
 20
0.0
  9
$LIMMAX
 10
12.0
 20
9.0
  9
$ORTHOMODE
 70
     0
  9
$REGENMODE
 70
     1
  9
$FILLMODE
 70
     1
  9
$QTEXTMODE
 70
     0
  9
$MIRRTEXT
 70
     0
  9
$LTSCALE
 40
1.0
  9
$ATTMODE
 70
     1
  9
$TEXTSIZE
 40
0.2
  9
$TRACEWID
 40
0.05
  9
$TEXTSTYLE
  7
Standard
  9
$CLAYER
  8
0
  9
$CELTYPE
  6
ByLayer
  9
$CECOLOR
 62
   256
  9
$CELTSCALE
 40
1.0
  9
$DISPSILH
 70
     0
  9
$DIMSCALE
 40
10.0
  9
$DIMASZ
 40
0.18
  9
$DIMEXO
 40
0.0625
  9
$DIMDLI
 40
0.38
  9
$DIMRND
 40
0.0
  9
$DIMDLE
 40
0.0
  9
$DIMEXE
 40
0.18
  9
$DIMTP
 40
0.0
  9
$DIMTM
 40
0.0
  9
$DIMTXT
 40
0.18
  9
$DIMCEN
 40
0.09
  9
$DIMTSZ
 40
0.0
  9
$DIMTOL
 70
     0
  9
$DIMLIM
 70
     0
  9
$DIMTIH
 70
     1
  9
$DIMTOH
 70
     1
  9
$DIMSE1
 70
     0
  9
$DIMSE2
 70
     0
  9
$DIMTAD
 70
     0
  9
$DIMZIN
 70
     8
  9
$DIMBLK
  1

  9
$DIMASO
 70
     1
  9
$DIMSHO
 70
     1
  9
$DIMPOST
  1
"
  9
$DIMAPOST
  1

  9
$DIMALT
 70
     0
  9
$DIMALTD
 70
     2
  9
$DIMALTF
 40
25.4
  9
$DIMLFAC
 40
1.0
  9
$DIMTOFL
 70
     0
  9
$DIMTVP
 40
0.0
  9
$DIMTIX
 70
     0
  9
$DIMSOXD
 70
     0
  9
$DIMSAH
 70
     0
  9
$DIMBLK1
  1

  9
$DIMBLK2
  1

  9
$DIMSTYLE
  2
Standard
  9
$DIMCLRD
 70
     0
  9
$DIMCLRE
 70
     0
  9
$DIMCLRT
 70
     0
  9
$DIMTFAC
 40
1.0
  9
$DIMGAP
 40
0.09
  9
$DIMJUST
 70
     0
  9
$DIMSD1
 70
     0
  9
$DIMSD2
 70
     0
  9
$DIMTOLJ
 70
     1
  9
$DIMTZIN
 70
     0
  9
$DIMALTZ
 70
     0
  9
$DIMALTTZ
 70
     0
  9
$DIMUPT
 70
     0
  9
$DIMDEC
 70
     6
  9
$DIMTDEC
 70
     6
  9
$DIMALTU
 70
     2
  9
$DIMALTTD
 70
     2
  9
$DIMTXSTY
  7
Standard
  9
$DIMAUNIT
 70
     0
  9
$DIMADEC
 70
     0
  9
$DIMALTRND
 40
0.0
  9
$DIMAZIN
 70
     0
  9
$DIMDSEP
 70
    46
  9
$DIMATFIT
 70
     3
  9
$DIMFRAC
 70
     0
  9
$DIMLDRBLK
  1

  9
$DIMLUNIT
 70
     5
  9
$DIMLWD
 70
    -2
  9
$DIMLWE
 70
    -2
  9
$DIMTMOVE
 70
     0
  9
$LUNITS
 70
     2
  9
$LUPREC
 70
     4
  9
$SKETCHINC
 40
0.1
  9
$FILLETRAD
 40
2.25
  9
$AUNITS
 70
     0
  9
$AUPREC
 70
     0
  9
$MENU
  1
.
  9
$ELEVATION
 40
0.0
  9
$PELEVATION
 40
0.0
  9
$THICKNESS
 40
0.0
  9
$LIMCHECK
 70
     0
  9
$CHAMFERA
 40
0.0
  9
$CHAMFERB
 40
0.0
  9
$CHAMFERC
 40
0.0
  9
$CHAMFERD
 40
0.0
  9
$SKPOLY
 70
     0
  9
$TDCREATE
 40
2454300.297981632
  9
$TDUCREATE
 40
2454300.464648298
  9
$TDUPDATE
 40
2454300.298424560
  9
$TDUUPDATE
 40
2454300.465091227
  9
$TDINDWG
 40
0.0004432870
  9
$TDUSRTIMER
 40
0.0004432870
  9
$USRTIMER
 70
     1
  9
$ANGBASE
 50
0.0
  9
$ANGDIR
 70
     0
  9
$PDMODE
 70
     0
  9
$PDSIZE
 40
0.0
  9
$PLINEWID
 40
0.0
  9
$SPLFRAME
 70
     0
  9
$SPLINETYPE
 70
     6
  9
$SPLINESEGS
 70
     8
  9
$HANDSEED
  5
59D
  9
$SURFTAB1
 70
     6
  9
$SURFTAB2
 70
     6
  9
$SURFTYPE
 70
     6
  9
$SURFU
 70
     6
  9
$SURFV
 70
     6
  9
$UCSBASE
  2

  9
$UCSNAME
  2

  9
$UCSORG
 10
0.0
 20
0.0
 30
0.0
  9
$UCSXDIR
 10
1.0
 20
0.0
 30
0.0
  9
$UCSYDIR
 10
0.0
 20
1.0
 30
0.0
  9
$UCSORTHOREF
  2

  9
$UCSORTHOVIEW
 70
     0
  9
$UCSORGTOP
 10
0.0
 20
0.0
 30
0.0
  9
$UCSORGBOTTOM
 10
0.0
 20
0.0
 30
0.0
  9
$UCSORGLEFT
 10
0.0
 20
0.0
 30
0.0
  9
$UCSORGRIGHT
 10
0.0
 20
0.0
 30
0.0
  9
$UCSORGFRONT
 10
0.0
 20
0.0
 30
0.0
  9
$UCSORGBACK
 10
0.0
 20
0.0
 30
0.0
  9
$PUCSBASE
  2

  9
$PUCSNAME
  2

  9
$PUCSORG
 10
0.0
 20
0.0
 30
0.0
  9
$PUCSXDIR
 10
1.0
 20
0.0
 30
0.0
  9
$PUCSYDIR
 10
0.0
 20
1.0
 30
0.0
  9
$PUCSORTHOREF
  2

  9
$PUCSORTHOVIEW
 70
     0
  9
$PUCSORGTOP
 10
0.0
 20
0.0
 30
0.0
  9
$PUCSORGBOTTOM
 10
0.0
 20
0.0
 30
0.0
  9
$PUCSORGLEFT
 10
0.0
 20
0.0
 30
0.0
  9
$PUCSORGRIGHT
 10
0.0
 20
0.0
 30
0.0
  9
$PUCSORGFRONT
 10
0.0
 20
0.0
 30
0.0
  9
$PUCSORGBACK
 10
0.0
 20
0.0
 30
0.0
  9
$USERI1
 70
     0
  9
$USERI2
 70
     0
  9
$USERI3
 70
     0
  9
$USERI4
 70
     0
  9
$USERI5
 70
     0
  9
$USERR1
 40
0.0
  9
$USERR2
 40
0.0
  9
$USERR3
 40
0.0
  9
$USERR4
 40
0.0
  9
$USERR5
 40
0.0
  9
$WORLDVIEW
 70
     1
  9
$SHADEDGE
 70
     3
  9
$SHADEDIF
 70
    70
  9
$TILEMODE
 70
     1
  9
$MAXACTVP
 70
    64
  9
$PINSBASE
 10
0.0
 20
0.0
 30
0.0
  9
$PLIMCHECK
 70
     0
  9
$PEXTMIN
 10
0.0
 20
0.0
 30
0.0
  9
$PEXTMAX
 10
0.0
 20
0.0
 30
0.0
  9
$PLIMMIN
 10
0.0
 20
0.0
  9
$PLIMMAX
 10
12.0
 20
9.0
  9
$UNITMODE
 70
     0
  9
$VISRETAIN
 70
     1
  9
$PLINEGEN
 70
     0
  9
$PSLTSCALE
 70
     1
  9
$TREEDEPTH
 70
  3020
  9
$CMLSTYLE
  2
Standard
  9
$CMLJUST
 70
     0
  9
$CMLSCALE
 40
1.0
  9
$PROXYGRAPHICS
 70
     1
  9
$MEASUREMENT
 70
     0
  9
$CELWEIGHT
370
    -1
  9
$ENDCAPS
280
     0
  9
$JOINSTYLE
280
     0
  9
$LWDISPLAY
290
     0
  9
$INSUNITS
 70
     1
  9
$HYPERLINKBASE
  1

  9
$STYLESHEET
  1

  9
$XEDIT
290
     1
  9
$CEPSNTYPE
380
     0
  9
$PSTYLEMODE
290
     1
  9
$FINGERPRINTGUID
  2
{23431264-52A5-4672-A5B4-9D0B8CB6DE40}
  9
$VERSIONGUID
  2
{1F228257-473E-4F5D-A602-202F3121CE02}
  9
$EXTNAMES
290
     1
  9
$PSVPSCALE
 40
0.0
  9
$OLESTARTUP
290
     0
  0
ENDSEC
  0
SECTION
  2
CLASSES
  0
CLASS
  1
ACDBDICTIONARYWDFLT
  2
AcDbDictionaryWithDefault
  3
ObjectDBX Classes
 90
        0
280
     0
281
     0
  0
CLASS
  1
ACDBPLACEHOLDER
  2
AcDbPlaceHolder
  3
ObjectDBX Classes
 90
        0
280
     0
281
     0
  0
CLASS
  1
LAYOUT
  2
AcDbLayout
  3
ObjectDBX Classes
 90
        0
280
     0
281
     0
  0
CLASS
  1
DICTIONARYVAR
  2
AcDbDictionaryVar
  3
ObjectDBX Classes
 90
        0
280
     0
281
     0
  0
CLASS
  1
TABLESTYLE
  2
AcDbTableStyle
  3
ObjectDBX Classes
 90
     2047
280
     0
281
     0
  0
CLASS
  1
SORTENTSTABLE
  2
AcDbSortentsTable
  3
ObjectDBX Classes
 90
        0
280
     0
281
     0
  0
ENDSEC
  0
SECTION
  2
TABLES
  0
TABLE
  2
VPORT
  5
8
330
0
100
AcDbSymbolTable
 70
     3
  0
VPORT
  5
595
330
8
100
AcDbSymbolTableRecord
100
AcDbViewportTableRecord
  2
*Active
 70
     0
 10
0.0
 20
0.0
 11
1.0
 21
1.0
 12
49.18306919921514
 22
-19.34600599876047
 13
0.0
 23
0.0
 14
0.5
 24
0.5
 15
0.5
 25
0.5
 16
0.0
 26
0.0
 36
1.0
 17
0.0
 27
0.0
 37
0.0
 40
124.3263223469623
 41
1.554677206851119
 42
50.0
 43
0.0
 44
0.0
 50
0.0
 51
0.0
 71
     0
 72
  1000
 73
     1
 74
     0
 75
     0
 76
     0
 77
     0
 78
     0
281
     0
 65
     1
110
0.0
120
0.0
130
0.0
111
1.0
121
0.0
131
0.0
112
0.0
122
1.0
132
0.0
 79
     0
146
0.0
  0
ENDTAB
  0
TABLE
  2
LTYPE
  5
5
330
0
100
AcDbSymbolTable
 70
     1
  0
LTYPE
  5
14
330
5
100
AcDbSymbolTableRecord
100
AcDbLinetypeTableRecord
  2
ByBlock
 70
     0
  3

 72
    65
 73
     0
 40
0.0
  0
LTYPE
  5
15
330
5
100
AcDbSymbolTableRecord
100
AcDbLinetypeTableRecord
  2
ByLayer
 70
     0
  3

 72
    65
 73
     0
 40
0.0
  0
LTYPE
  5
16
330
5
100
AcDbSymbolTableRecord
100
AcDbLinetypeTableRecord
  2
Continuous
 70
     0
  3
Solid line
 72
    65
 73
     0
 40
0.0
  0
ENDTAB
  0
TABLE
  2
LAYER
  5
2
330
0
100
AcDbSymbolTable
 70
     1
  0
LAYER
  5
10
330
2
100
AcDbSymbolTableRecord
100
AcDbLayerTableRecord
  2
0
 70
     0
 62
     7
  6
Continuous
370
    -3
390
F
  0
ENDTAB
  0
TABLE
  2
STYLE
  5
3
330
0
100
AcDbSymbolTable
 70
     2
  0
STYLE
  5
11
330
3
100
AcDbSymbolTableRecord
100
AcDbTextStyleTableRecord
  2
Standard
 70
     0
 40
0.0
 41
1.0
 50
0.0
 71
     0
 42
0.2
  3
ARIAL.TTF
  4

1001
ACAD
1000
Arial
1071
       34
  0
STYLE
  5
45A
330
3
100
AcDbSymbolTableRecord
100
AcDbTextStyleTableRecord
  2
Text
 70
     0
 40
0.0
 41
1.0
 50
0.0
 71
     0
 42
0.09375
  3
TIMES.TTF
  4

1001
ACAD
1000
Times New Roman
1071
       18
  0
ENDTAB
  0
TABLE
  2
VIEW
  5
6
330
0
100
AcDbSymbolTable
 70
     0
  0
ENDTAB
  0
TABLE
  2
UCS
  5
7
330
0
100
AcDbSymbolTable
 70
     0
  0
ENDTAB
  0
TABLE
  2
APPID
  5
9
330
0
100
AcDbSymbolTable
 70
     9
  0
APPID
  5
12
330
9
100
AcDbSymbolTableRecord
100
AcDbRegAppTableRecord
  2
ACAD
 70
     0
  0
APPID
  5
8C
330
9
100
AcDbSymbolTableRecord
100
AcDbRegAppTableRecord
  2
ACAD_DSTYLE_DIMTEXT_FILL
 70
     0
  0
APPID
  5
8D
330
9
100
AcDbSymbolTableRecord
100
AcDbRegAppTableRecord
  2
ACAD_DSTYLE_DIMEXT_LENGTH
 70
     0
  0
APPID
  5
8E
330
9
100
AcDbSymbolTableRecord
100
AcDbRegAppTableRecord
  2
ACAD_DSTYLE_DIMEXT_ENABLED
 70
     0
  0
APPID
  5
8F
330
9
100
AcDbSymbolTableRecord
100
AcDbRegAppTableRecord
  2
ACAD_DSTYLE_DIM_LINETYPE
 70
     0
  0
APPID
  5
90
330
9
100
AcDbSymbolTableRecord
100
AcDbRegAppTableRecord
  2
ACAD_DSTYLE_DIM_EXT1_LINETYPE
 70
     0
  0
APPID
  5
91
330
9
100
AcDbSymbolTableRecord
100
AcDbRegAppTableRecord
  2
ACAD_DSTYLE_DIM_EXT2_LINETYPE
 70
     0
  0
APPID
  5
14D
330
9
100
AcDbSymbolTableRecord
100
AcDbRegAppTableRecord
  2
ACAD_DSTYLE_DIMJOGGED_JOGANGLE_SYMBOL
 70
     0
  0
APPID
  5
3F5
330
9
100
AcDbSymbolTableRecord
100
AcDbRegAppTableRecord
  2
ACAD_DSTYLE_DIMARC_LENGTH_SYMBOL
 70
     0
  0
ENDTAB
  0
TABLE
  2
DIMSTYLE
  5
A
330
0
100
AcDbSymbolTable
 70
     1
100
AcDbDimStyleTable
 71
     1
340
27
  0
DIMSTYLE
105
27
330
A
100
AcDbSymbolTableRecord
100
AcDbDimStyleTableRecord
  2
Standard
 70
     0
  3
"
 40
10.0
 78
     8
271
     6
272
     6
277
     5
340
11
1001
ACAD_DSTYLE_DIMEXT_LENGTH
1070
   378
1040
0.18
1001
ACAD_DSTYLE_DIMEXT_ENABLED
1070
   383
1070
     0
1001
ACAD_DSTYLE_DIMARC_LENGTH_SYMBOL
1070
   379
1070
     0
1001
ACAD_DSTYLE_DIMJOGGED_JOGANGLE_SYMBOL
1070
   384
1040
0.7853981633974483
  0
ENDTAB
  0
TABLE
  2
BLOCK_RECORD
  5
1
330
0
100
AcDbSymbolTable
 70
     3
  0
BLOCK_RECORD
  5
1F
330
1
100
AcDbSymbolTableRecord
100
AcDbBlockTableRecord
  2
*Model_Space
340
22
  0
BLOCK_RECORD
  5
58
330
1
100
AcDbSymbolTableRecord
100
AcDbBlockTableRecord
  2
*Paper_Space
340
59
  0
BLOCK_RECORD
  5
5D
330
1
100
AcDbSymbolTableRecord
100
AcDbBlockTableRecord
  2
*Paper_Space0
340
5E
  0
BLOCK_RECORD
  5
45B
330
1
100
AcDbSymbolTableRecord
100
AcDbBlockTableRecord
  2
STD HARDWARE
340
0
1001
ACAD
1000
DesignCenter Data
1002
{
1070
     1
1070
     1
1002
}
  0
ENDTAB
  0
ENDSEC
  0
SECTION
  2
BLOCKS
  0
BLOCK
  5
20
330
1F
100
AcDbEntity
  8
0
100
AcDbBlockBegin
  2
*Model_Space
 70
     0
 10
0.0
 20
0.0
 30
0.0
  3
*Model_Space
  1

  0
ENDBLK
  5
21
330
1F
100
AcDbEntity
  8
0
100
AcDbBlockEnd
  0
BLOCK
  5
5A
330
58
100
AcDbEntity
 67
     1
  8
0
100
AcDbBlockBegin
  2
*Paper_Space
 70
     0
 10
0.0
 20
0.0
 30
0.0
  3
*Paper_Space
  1

  0
ENDBLK
  5
5B
330
58
100
AcDbEntity
 67
     1
  8
0
100
AcDbBlockEnd
  0
BLOCK
  5
5F
330
5D
100
AcDbEntity
 67
     1
  8
0
100
AcDbBlockBegin
  2
*Paper_Space0
 70
     0
 10
0.0
 20
0.0
 30
0.0
  3
*Paper_Space0
  1

  0
ENDBLK
  5
60
330
5D
100
AcDbEntity
 67
     1
  8
0
100
AcDbBlockEnd
  0
BLOCK
  5
478
330
45B
100
AcDbEntity
  8
0
100
AcDbBlockBegin
  2
STD HARDWARE
 70
     0
 10
0.0
 20
0.0
 30
0.0
  3
STD HARDWARE
  1

  0
LINE
  5
45C
330
45B
100
AcDbEntity
  8
0
100
AcDbLine
 10
82.12366255362965
 20
8.756831083884661
 30
0.0
 11
76.86625515496868
 21
8.756831083884661
 31
0.0
  0
TEXT
  5
45D
330
45B
100
AcDbEntity
  8
0
100
AcDbText
 10
77.99045541258468
 20
10.2831493526444
 30
0.0
 40
0.4775366748046875
  1
ELIASON
 50
0.0000000000016284
  7
Text
100
AcDbText
  0
LINE
  5
45E
330
45B
100
AcDbEntity
  8
0
100
AcDbLine
 10
68.84275595548828
 20
7.684993821821556
 30
0.0
 11
68.84275595548828
 21
11.9196923132278
 31
0.0
  0
LINE
  5
45F
330
45B
100
AcDbEntity
  8
0
100
AcDbLine
 10
69.00991510646488
 20
7.684993821821556
 30
0.0
 11
69.00991510646488
 21
11.9196923132278
 31
0.0
  0
LINE
  5
460
330
45B
100
AcDbEntity
  8
0
100
AcDbLine
 10
66.05677010587894
 20
7.462114953852811
 30
0.0
 11
68.61987708751954
 21
7.462114953852811
 31
0.0
  0
LINE
  5
461
330
45B
100
AcDbEntity
  8
0
100
AcDbLine
 10
66.05677010587894
 20
7.294955802876238
 30
0.0
 11
68.61987708751954
 21
7.294955802876238
 31
0.0
  0
CIRCLE
  5
462
330
45B
100
AcDbEntity
  8
0
100
AcDbCircle
 10
66.27964897384768
 20
8.576509293696553
 30
0.0
 40
0.1671591509765625
  0
LWPOLYLINE
  5
463
330
45B
100
AcDbEntity
  8
0
100
AcDbPolyline
 90
        4
 70
     1
 43
0.0
 10
67.61692218166027
 20
9.913782501509068
 10
64.94237576603532
 20
9.913782501509068
 10
64.94237576603532
 20
8.10745580287624
 10
67.61692218166027
 20
8.107455802876238
  0
LINE
  5
464
330
45B
100
AcDbEntity
  8
0
100
AcDbLine
 10
66.05677010587894
 20
7.294955802876238
 30
0.0
 11
66.05677010587894
 21
7.462114953852811
 31
0.0
  0
CIRCLE
  5
465
330
45B
100
AcDbEntity
  8
0
100
AcDbCircle
 10
65.3324137849805
 20
9.468024765571549
 30
0.0
 40
0.1671591509765625
  0
LWPOLYLINE
  5
466
330
45B
100
AcDbEntity
  8
0
100
AcDbPolyline
 90
        4
 70
     0
 43
0.0
 10
66.94828557775386
 20
8.107455802876238
 10
66.94828557775386
 20
7.462114953852811
 10
67.39404331369147
 20
7.462114953852811
 10
67.39404331369147
 20
8.107455802876238
  0
CIRCLE
  5
467
330
45B
100
AcDbEntity
  8
0
100
AcDbCircle
 10
67.22688416271487
 20
9.468024765571549
 30
0.0
 40
0.1671591509765625
  0
ARC
  5
468
330
45B
100
AcDbEntity
  8
0
100
AcDbCircle
 10
68.61987708751954
 20
7.684993821821556
 30
0.0
 40
0.3900380189453125
100
AcDbArc
 50
270.0
 51
0.0
  0
LINE
  5
469
330
45B
100
AcDbEntity
  8
0
100
AcDbLine
 10
68.61987708751954
 20
7.294955802876238
 30
0.0
 11
69.00991510646488
 21
7.294955802876238
 31
0.0
  0
ARC
  5
46A
330
45B
100
AcDbEntity
  8
0
100
AcDbCircle
 10
68.61987708751954
 20
7.684993821821556
 30
0.0
 40
0.22287886796875
100
AcDbArc
 50
270.0
 51
0.0
  0
LINE
  5
46B
330
45B
100
AcDbEntity
  8
0
100
AcDbLine
 10
68.84275595548828
 20
11.9196923132278
 30
0.0
 11
69.00991510646488
 21
11.9196923132278
 31
0.0
  0
LINE
  5
46C
330
45B
100
AcDbEntity
  8
0
100
AcDbLine
 10
76.86625515496868
 20
8.756831083884661
 30
0.0
 11
76.86625515496868
 21
12.50683108388466
 31
0.0
  0
LINE
  5
46D
330
45B
100
AcDbEntity
  8
0
100
AcDbLine
 10
83.43951374096471
 20
12.81933108388466
 30
0.0
 11
83.43951374096471
 21
9.256831083884662
 31
0.0
  0
LINE
  5
46E
330
45B
100
AcDbEntity
  8
0
100
AcDbLine
 10
82.12366255362965
 20
12.50683108388466
 30
0.0
 11
82.12366255362965
 21
8.756831083884661
 31
0.0
  0
LINE
  5
46F
330
45B
100
AcDbEntity
  8
0
100
AcDbLine
 10
83.62701374096472
 20
9.256831083884662
 30
0.0
 11
83.43951374096471
 21
9.256831083884662
 31
0.0
  0
LINE
  5
470
330
45B
100
AcDbEntity
  8
0
100
AcDbLine
 10
83.18951374096471
 20
13.06933108388466
 30
0.0
 11
78.37701374096472
 21
13.06933108388466
 31
0.0
  0
LINE
  5
471
330
45B
100
AcDbEntity
  8
0
100
AcDbLine
 10
83.18951374096471
 20
13.25683108388466
 30
0.0
 11
78.37701374096472
 21
13.25683108388466
 31
0.0
  0
LINE
  5
472
330
45B
100
AcDbEntity
  8
0
100
AcDbLine
 10
78.37701374096472
 20
13.06933108388466
 30
0.0
 11
78.37701374096472
 21
13.25683108388466
 31
0.0
  0
LINE
  5
473
330
45B
100
AcDbEntity
  8
0
100
AcDbLine
 10
79.43951374096471
 20
13.06933108388466
 30
0.0
 11
79.43951374096471
 21
12.50683108388466
 31
0.0
  0
LINE
  5
474
330
45B
100
AcDbEntity
  8
0
100
AcDbLine
 10
80.31451374096471
 20
13.06933108388466
 30
0.0
 11
80.31451374096471
 21
12.50683108388466
 31
0.0
  0
ARC
  5
475
330
45B
100
AcDbEntity
  8
0
100
AcDbCircle
 10
83.18951374096471
 20
12.81933108388466
 30
0.0
 40
0.25
100
AcDbArc
 50
0.0
 51
90.0
  0
LINE
  5
476
330
45B
100
AcDbEntity
  8
0
100
AcDbLine
 10
83.62701374096472
 20
13.25683108388466
 30
0.0
 11
83.18951374096471
 21
13.25683108388466
 31
0.0
  0
ARC
  5
477
330
45B
100
AcDbEntity
  8
0
100
AcDbCircle
 10
83.18951374096471
 20
12.81933108388466
 30
0.0
 40
0.4375
100
AcDbArc
 50
0.0
 51
90.0
  0
ENDBLK
  5
479
330
45B
100
AcDbEntity
  8
0
100
AcDbBlockEnd
  0
ENDSEC
  0
SECTION
  2
ENTITIES
  0
LINE
  5
50A
330
1F
100
AcDbEntity
  8
0
100
AcDbLine
 10
-28.23004819643036
 20
22.03951011526999
 30
0.0
 11
43.76995180356963
 21
22.03951011526999
 31
0.0
  0
LINE
  5
50B
330
1F
100
AcDbEntity
  8
0
100
AcDbLine
 10
43.76995180356963
 20
22.03951011526999
 30
0.0
 11
43.76995180356963
 21
-61.96048988473001
 31
0.0
  0
LINE
  5
50C
330
1F
100
AcDbEntity
  8
0
100
AcDbLine
 10
43.76995180356963
 20
-61.96048988473001
 30
0.0
 11
-28.23004819643037
 21
-61.96048988473001
 31
0.0
  0
LINE
  5
50D
330
1F
100
AcDbEntity
  8
0
100
AcDbLine
 10
43.39495180356964
 20
-48.12593279881173
 30
0.0
 11
43.21570953950723
 21
-48.12593279881173
 31
0.0
  0
LINE
  5
50E
330
1F
100
AcDbEntity
  8
0
100
AcDbLine
 10
40.71570953950725
 20
-48.12593279881173
 30
0.0
 11
8.394951803569625
 21
-48.12593279881173
 31
0.0
  0
ARC
  5
50F
330
1F
100
AcDbEntity
  8
0
100
AcDbCircle
 10
8.394951803569625
 20
-47.75093279881173
 30
0.0
 40
0.375
100
AcDbArc
 50
180.0
 51
269.9999999999996
  0
LINE
  5
510
330
1F
100
AcDbEntity
  8
0
100
AcDbLine
 10
-28.23004819643037
 20
-61.96048988473001
 30
0.0
 11
-28.23004819643036
 21
22.03951011526999
 31
0.0
  0
LINE
  5
511
330
1F
100
AcDbEntity
  8
0
100
AcDbLine
 10
83.28918809739306
 20
22.03951011526999
 30
0.0
 11
119.289188097393
 21
22.03951011526999
 31
0.0
  0
LINE
  5
512
330
1F
100
AcDbEntity
  8
0
100
AcDbLine
 10
119.289188097393
 20
22.03951011526999
 30
0.0
 11
119.289188097393
 21
-61.96048988473001
 31
0.0
  0
LINE
  5
513
330
1F
100
AcDbEntity
  8
0
100
AcDbLine
 10
119.289188097393
 20
-61.96048988473001
 30
0.0
 11
83.28918809739306
 21
-61.96048988473001
 31
0.0
  0
LINE
  5
514
330
1F
100
AcDbEntity
  8
0
100
AcDbLine
 10
83.28918809739306
 20
-61.96048988473001
 30
0.0
 11
83.28918809739306
 21
22.03951011526999
 31
0.0
  0
LINE
  5
515
330
1F
100
AcDbEntity
  8
0
100
AcDbLine
 10
43.60279265259302
 20
-48.73589477986627
 30
0.0
 11
43.60279265259302
 21
-44.12619628845994
 31
0.0
  0
LINE
  5
516
330
1F
100
AcDbEntity
  8
0
100
AcDbLine
 10
43.76995180356963
 20
-48.73589477986627
 30
0.0
 11
43.76995180356963
 21
-44.12619628845994
 31
0.0
  0
LINE
  5
517
330
1F
100
AcDbEntity
  8
0
100
AcDbLine
 10
42.01995180356965
 20
-48.95877364783484
 30
0.0
 11
43.37991378462428
 21
-48.95877364783484
 31
0.0
  0
LINE
  5
518
330
1F
100
AcDbEntity
  8
0
100
AcDbLine
 10
42.01995180356965
 20
-49.1259327988115
 30
0.0
 11
43.37991378462428
 21
-49.1259327988115
 31
0.0
  0
CIRCLE
  5
519
330
1F
100
AcDbEntity
  8
0
100
AcDbCircle
 10
41.97126329065582
 20
-47.84437930799128
 30
0.0
 40
0.1671591509765625
  0
LINE
  5
51A
330
1F
100
AcDbEntity
  8
0
100
AcDbLine
 10
40.71570953950725
 20
-48.3134327988115
 30
0.0
 11
43.21570953950723
 21
-48.3134327988115
 31
0.0
  0
LINE
  5
51B
330
1F
100
AcDbEntity
  8
0
100
AcDbLine
 10
40.71570953950725
 20
-46.3134327988115
 30
0.0
 11
43.21570953950723
 21
-46.3134327988115
 31
0.0
  0
LINE
  5
51C
330
1F
100
AcDbEntity
  8
0
100
AcDbLine
 10
42.01995180356965
 20
-49.1259327988115
 30
0.0
 11
42.01995180356965
 21
-48.95877364783484
 31
0.0
  0
CIRCLE
  5
51D
330
1F
100
AcDbEntity
  8
0
100
AcDbCircle
 10
41.02376295373244
 20
-46.66078763117013
 30
0.0
 40
0.1671591509765625
  0
CIRCLE
  5
51E
330
1F
100
AcDbEntity
  8
0
100
AcDbCircle
 10
42.9182333314668
 20
-46.66078763117013
 30
0.0
 40
0.1671591509765625
  0
ARC
  5
51F
330
1F
100
AcDbEntity
  8
0
100
AcDbCircle
 10
43.37991378462428
 20
-48.73589477986627
 30
0.0
 40
0.3900380189453125
100
AcDbArc
 50
270.0
 51
0.0
  0
ARC
  5
520
330
1F
100
AcDbEntity
  8
0
100
AcDbCircle
 10
43.37991378462428
 20
-48.73589477986627
 30
0.0
 40
0.22287886796875
100
AcDbArc
 50
270.0
 51
0.0
  0
LINE
  5
521
330
1F
100
AcDbEntity
  8
0
100
AcDbLine
 10
43.60279265259302
 20
-44.12619628845994
 30
0.0
 11
43.76995180356963
 21
-44.12619628845994
 31
0.0
  0
LINE
  5
522
330
1F
100
AcDbEntity
  8
0
100
AcDbLine
 10
43.01995180356962
 20
-48.3134327988115
 30
0.0
 11
43.01995180356962
 21
-48.95877364783484
 31
0.0
  0
LINE
  5
523
330
1F
100
AcDbEntity
  8
0
100
AcDbLine
 10
42.51995180356963
 20
-48.3134327988115
 30
0.0
 11
42.51995180356963
 21
-48.95877364783484
 31
0.0
  0
LINE
  5
524
330
1F
100
AcDbEntity
  8
0
100
AcDbLine
 10
40.71570953950725
 20
-48.3134327988115
 30
0.0
 11
40.71570953950725
 21
-46.3134327988115
 31
0.0
  0
LINE
  5
525
330
1F
100
AcDbEntity
  8
0
100
AcDbLine
 10
43.21570953950723
 20
-48.3134327988115
 30
0.0
 11
43.21570953950723
 21
-46.3134327988115
 31
0.0
  0
LINE
  5
526
330
1F
100
AcDbEntity
  8
0
100
AcDbLine
 10
-27.85504819643036
 20
-7.500932798811504
 30
0.0
 11
-27.85504819643038
 21
-48.12593279881173
 31
0.0
  0
LINE
  5
527
330
1F
100
AcDbEntity
  8
0
100
AcDbLine
 10
-27.85504819643038
 20
-48.12593279881173
 30
0.0
 11
-27.67580593236797
 21
-48.12593279881173
 31
0.0
  0
LINE
  5
528
330
1F
100
AcDbEntity
  8
0
100
AcDbLine
 10
-25.17580593236801
 20
-48.12593279881173
 30
0.0
 11
7.144951803569625
 21
-48.12593279881173
 31
0.0
  0
ARC
  5
529
330
1F
100
AcDbEntity
  8
0
100
AcDbCircle
 10
7.144951803569625
 20
-47.75093279881173
 30
0.0
 40
0.375
100
AcDbArc
 50
270.0000000000004
 51
0.0
  0
ARC
  5
52A
330
1F
100
AcDbEntity
  8
0
100
AcDbCircle
 10
-27.48004819643036
 20
-7.500932798811504
 30
0.0
 40
0.375
100
AcDbArc
 50
90.0
 51
180.0
  0
LINE
  5
52B
330
1F
100
AcDbEntity
  8
0
100
AcDbLine
 10
7.519951803569625
 20
-7.125932798811504
 30
0.0
 11
7.519951803569625
 21
-47.75093279881173
 31
0.0
  0
LINE
  5
52C
330
1F
100
AcDbEntity
  8
0
100
AcDbLine
 10
-28.06288904545377
 20
-48.73589477986627
 30
0.0
 11
-28.06288904545377
 21
-44.12619628845994
 31
0.0
  0
LINE
  5
52D
330
1F
100
AcDbEntity
  8
0
100
AcDbLine
 10
-28.23004819643037
 20
-48.73589477986627
 30
0.0
 11
-28.23004819643037
 21
-44.12619628845994
 31
0.0
  0
LINE
  5
52E
330
1F
100
AcDbEntity
  8
0
100
AcDbLine
 10
-26.4800481964304
 20
-48.95877364783484
 30
0.0
 11
-27.84001017748503
 21
-48.95877364783484
 31
0.0
  0
LINE
  5
52F
330
1F
100
AcDbEntity
  8
0
100
AcDbLine
 10
-26.4800481964304
 20
-49.1259327988115
 30
0.0
 11
-27.84001017748503
 21
-49.1259327988115
 31
0.0
  0
CIRCLE
  5
530
330
1F
100
AcDbEntity
  8
0
100
AcDbCircle
 10
-26.43135968351657
 20
-47.84437930799128
 30
0.0
 40
0.1671591509765625
  0
LINE
  5
531
330
1F
100
AcDbEntity
  8
0
100
AcDbLine
 10
-25.17580593236801
 20
-48.3134327988115
 30
0.0
 11
-27.67580593236798
 21
-48.3134327988115
 31
0.0
  0
LINE
  5
532
330
1F
100
AcDbEntity
  8
0
100
AcDbLine
 10
-25.17580593236801
 20
-46.3134327988115
 30
0.0
 11
-27.67580593236798
 21
-46.3134327988115
 31
0.0
  0
LINE
  5
533
330
1F
100
AcDbEntity
  8
0
100
AcDbLine
 10
-26.4800481964304
 20
-49.1259327988115
 30
0.0
 11
-26.4800481964304
 21
-48.95877364783484
 31
0.0
  0
CIRCLE
  5
534
330
1F
100
AcDbEntity
  8
0
100
AcDbCircle
 10
-25.48385934659319
 20
-46.66078763117013
 30
0.0
 40
0.1671591509765625
  0
CIRCLE
  5
535
330
1F
100
AcDbEntity
  8
0
100
AcDbCircle
 10
-27.37832972432756
 20
-46.66078763117013
 30
0.0
 40
0.1671591509765625
  0
ARC
  5
536
330
1F
100
AcDbEntity
  8
0
100
AcDbCircle
 10
-27.84001017748503
 20
-48.73589477986627
 30
0.0
 40
0.3900380189453125
100
AcDbArc
 50
180.0
 51
270.0
  0
ARC
  5
537
330
1F
100
AcDbEntity
  8
0
100
AcDbCircle
 10
-27.84001017748503
 20
-48.73589477986627
 30
0.0
 40
0.22287886796875
100
AcDbArc
 50
180.0
 51
270.0
  0
LINE
  5
538
330
1F
100
AcDbEntity
  8
0
100
AcDbLine
 10
-28.06288904545377
 20
-44.12619628845994
 30
0.0
 11
-28.23004819643037
 21
-44.12619628845994
 31
0.0
  0
LINE
  5
539
330
1F
100
AcDbEntity
  8
0
100
AcDbLine
 10
-27.48004819643037
 20
-48.3134327988115
 30
0.0
 11
-27.48004819643037
 21
-48.95877364783484
 31
0.0
  0
LINE
  5
53A
330
1F
100
AcDbEntity
  8
0
100
AcDbLine
 10
-26.98004819643037
 20
-48.3134327988115
 30
0.0
 11
-26.98004819643037
 21
-48.95877364783484
 31
0.0
  0
LINE
  5
53B
330
1F
100
AcDbEntity
  8
0
100
AcDbLine
 10
-25.17580593236801
 20
-48.3134327988115
 30
0.0
 11
-25.17580593236801
 21
-46.3134327988115
 31
0.0
  0
LINE
  5
53C
330
1F
100
AcDbEntity
  8
0
100
AcDbLine
 10
-27.67580593236798
 20
-48.3134327988115
 30
0.0
 11
-27.67580593236798
 21
-46.3134327988115
 31
0.0
  0
LINE
  5
53D
330
1F
100
AcDbEntity
  8
0
100
AcDbLine
 10
-26.94346367964441
 20
-10.1259327988115
 30
0.0
 11
-23.68605628098343
 21
-10.1259327988115
 31
0.0
  0
TEXT
  5
53E
330
1F
100
AcDbEntity
  8
0
100
AcDbText
 10
-26.31675427186505
 20
-8.741197576969966
 30
0.0
 40
0.3415300458080503
  1
ELIASON
 50
359.9999999999984
  7
Text
100
AcDbText
  0
LINE
  5
53F
330
1F
100
AcDbEntity
  8
0
100
AcDbLine
 10
-23.68605628098343
 20
-10.1259327988115
 30
0.0
 11
-23.68605628098343
 21
-7.125932798811504
 31
0.0
  0
LINE
  5
540
330
1F
100
AcDbEntity
  8
0
100
AcDbLine
 10
-28.04254819643036
 20
-6.813432798811504
 30
0.0
 11
-28.04254819643036
 21
-10.3759327988115
 31
0.0
  0
LINE
  5
541
330
1F
100
AcDbEntity
  8
0
100
AcDbLine
 10
-26.94346367964441
 20
-7.125932798811504
 30
0.0
 11
-26.94346367964441
 21
-10.1259327988115
 31
0.0
  0
LINE
  5
542
330
1F
100
AcDbEntity
  8
0
100
AcDbLine
 10
-28.23004819643037
 20
-10.3759327988115
 30
0.0
 11
-28.04254819643036
 21
-10.3759327988115
 31
0.0
  0
LINE
  5
543
330
1F
100
AcDbEntity
  8
0
100
AcDbLine
 10
-27.79254819643036
 20
-6.563432798811504
 30
0.0
 11
-24.48004819643037
 21
-6.563432798811504
 31
0.0
  0
LINE
  5
544
330
1F
100
AcDbEntity
  8
0
100
AcDbLine
 10
-27.79254819643036
 20
-6.375932798811504
 30
0.0
 11
-24.48004819643037
 21
-6.375932798811504
 31
0.0
  0
LINE
  5
545
330
1F
100
AcDbEntity
  8
0
100
AcDbLine
 10
-24.48004819643037
 20
-6.563432798811504
 30
0.0
 11
-24.48004819643037
 21
-6.375932798811504
 31
0.0
  0
LINE
  5
546
330
1F
100
AcDbEntity
  8
0
100
AcDbLine
 10
-25.10504819643037
 20
-6.563432798811504
 30
0.0
 11
-25.10504819643037
 21
-7.125932798811504
 31
0.0
  0
LINE
  5
547
330
1F
100
AcDbEntity
  8
0
100
AcDbLine
 10
-25.85504819643036
 20
-6.563432798811504
 30
0.0
 11
-25.85504819643036
 21
-7.125932798811504
 31
0.0
  0
ARC
  5
548
330
1F
100
AcDbEntity
  8
0
100
AcDbCircle
 10
-27.79254819643036
 20
-6.813432798811504
 30
0.0
 40
0.25
100
AcDbArc
 50
90.0
 51
180.0
  0
ARC
  5
549
330
1F
100
AcDbEntity
  8
0
100
AcDbCircle
 10
-27.79254819643036
 20
-6.813432798811504
 30
0.0
 40
0.4375
100
AcDbArc
 50
90.0
 51
180.0
  0
LINE
  5
54A
330
1F
100
AcDbEntity
  8
0
100
AcDbLine
 10
-25.10504819643037
 20
-7.125932798811504
 30
0.0
 11
-25.85504819643036
 21
-7.125932798811504
 31
0.0
  0
LINE
  5
54B
330
1F
100
AcDbEntity
  8
0
100
AcDbLine
 10
118.914188097393
 20
-48.12593279881173
 30
0.0
 11
118.7349458333306
 21
-48.12593279881173
 31
0.0
  0
LINE
  5
54C
330
1F
100
AcDbEntity
  8
0
100
AcDbLine
 10
116.2349458333307
 20
-48.12593279881173
 30
0.0
 11
83.91418809739306
 21
-48.12593279881173
 31
0.0
  0
ARC
  5
54D
330
1F
100
AcDbEntity
  8
0
100
AcDbCircle
 10
83.91418809739306
 20
-47.75093279881173
 30
0.0
 40
0.375
100
AcDbArc
 50
180.0
 51
269.9999999999996
  0
LINE
  5
54E
330
1F
100
AcDbEntity
  8
0
100
AcDbLine
 10
119.1220289464164
 20
-48.73589477986627
 30
0.0
 11
119.1220289464164
 21
-44.12619628845994
 31
0.0
  0
LINE
  5
54F
330
1F
100
AcDbEntity
  8
0
100
AcDbLine
 10
119.289188097393
 20
-48.73589477986627
 30
0.0
 11
119.289188097393
 21
-44.12619628845994
 31
0.0
  0
LINE
  5
550
330
1F
100
AcDbEntity
  8
0
100
AcDbLine
 10
117.5391880973931
 20
-48.95877364783484
 30
0.0
 11
118.8991500784477
 21
-48.95877364783484
 31
0.0
  0
LINE
  5
551
330
1F
100
AcDbEntity
  8
0
100
AcDbLine
 10
117.5391880973931
 20
-49.1259327988115
 30
0.0
 11
118.8991500784477
 21
-49.1259327988115
 31
0.0
  0
CIRCLE
  5
552
330
1F
100
AcDbEntity
  8
0
100
AcDbCircle
 10
117.4904995844793
 20
-47.84437930799128
 30
0.0
 40
0.1671591509765625
  0
LINE
  5
553
330
1F
100
AcDbEntity
  8
0
100
AcDbLine
 10
116.2349458333307
 20
-48.3134327988115
 30
0.0
 11
118.7349458333306
 21
-48.3134327988115
 31
0.0
  0
LINE
  5
554
330
1F
100
AcDbEntity
  8
0
100
AcDbLine
 10
116.2349458333307
 20
-46.3134327988115
 30
0.0
 11
118.7349458333306
 21
-46.3134327988115
 31
0.0
  0
LINE
  5
555
330
1F
100
AcDbEntity
  8
0
100
AcDbLine
 10
117.5391880973931
 20
-49.1259327988115
 30
0.0
 11
117.5391880973931
 21
-48.95877364783484
 31
0.0
  0
CIRCLE
  5
556
330
1F
100
AcDbEntity
  8
0
100
AcDbCircle
 10
116.5429992475559
 20
-46.66078763117013
 30
0.0
 40
0.1671591509765625
  0
CIRCLE
  5
557
330
1F
100
AcDbEntity
  8
0
100
AcDbCircle
 10
118.4374696252902
 20
-46.66078763117013
 30
0.0
 40
0.1671591509765625
  0
ARC
  5
558
330
1F
100
AcDbEntity
  8
0
100
AcDbCircle
 10
118.8991500784477
 20
-48.73589477986627
 30
0.0
 40
0.3900380189453125
100
AcDbArc
 50
270.0
 51
0.0
  0
ARC
  5
559
330
1F
100
AcDbEntity
  8
0
100
AcDbCircle
 10
118.8991500784477
 20
-48.73589477986627
 30
0.0
 40
0.22287886796875
100
AcDbArc
 50
270.0
 51
0.0
  0
LINE
  5
55A
330
1F
100
AcDbEntity
  8
0
100
AcDbLine
 10
119.1220289464164
 20
-44.12619628845994
 30
0.0
 11
119.289188097393
 21
-44.12619628845994
 31
0.0
  0
LINE
  5
55B
330
1F
100
AcDbEntity
  8
0
100
AcDbLine
 10
118.5391880973931
 20
-48.3134327988115
 30
0.0
 11
118.5391880973931
 21
-48.95877364783484
 31
0.0
  0
LINE
  5
55C
330
1F
100
AcDbEntity
  8
0
100
AcDbLine
 10
118.039188097393
 20
-48.3134327988115
 30
0.0
 11
118.039188097393
 21
-48.95877364783484
 31
0.0
  0
LINE
  5
55D
330
1F
100
AcDbEntity
  8
0
100
AcDbLine
 10
116.2349458333307
 20
-48.3134327988115
 30
0.0
 11
116.2349458333307
 21
-46.3134327988115
 31
0.0
  0
LINE
  5
55E
330
1F
100
AcDbEntity
  8
0
100
AcDbLine
 10
118.7349458333306
 20
-48.3134327988115
 30
0.0
 11
118.7349458333306
 21
-46.3134327988115
 31
0.0
  0
ARC
  5
55F
330
1F
100
AcDbEntity
  8
0
100
AcDbCircle
 10
1.519951803569629
 20
-7.125932798811504
 30
0.0
 40
6.0
100
AcDbArc
 50
0.0
 51
103.7707990799217
  0
LINE
  5
560
330
1F
100
AcDbEntity
  8
0
100
AcDbLine
 10
-23.68605628098343
 20
-7.125932798811504
 30
0.0
 11
0.0917208881768126
 21
-1.298398461519695
 31
0.0
  0
LINE
  5
561
330
1F
100
AcDbEntity
  8
0
100
AcDbLine
 10
-27.48004819643036
 20
-7.125932798811504
 30
0.0
 11
-23.68605628098343
 21
-7.125932798811504
 31
0.0
  0
LINE
  5
562
330
1F
100
AcDbEntity
  8
0
100
AcDbLine
 10
43.76995180356963
 20
-61.96048988473001
 30
0.0
 11
43.76995180356965
 21
22.03951011526999
 31
0.0
  0
LINE
  5
563
330
1F
100
AcDbEntity
  8
0
100
AcDbLine
 10
43.39495180356964
 20
-7.500932798811504
 30
0.0
 11
43.39495180356962
 21
-48.12593279881173
 31
0.0
  0
ARC
  5
564
330
1F
100
AcDbEntity
  8
0
100
AcDbCircle
 10
43.01995180356963
 20
-7.500932798811504
 30
0.0
 40
0.375
100
AcDbArc
 50
0.0
 51
90.0
  0
LINE
  5
565
330
1F
100
AcDbEntity
  8
0
100
AcDbLine
 10
8.019951803569647
 20
-7.125932798811504
 30
0.0
 11
8.019951803569625
 21
-47.75093279881173
 31
0.0
  0
LINE
  5
566
330
1F
100
AcDbEntity
  8
0
100
AcDbLine
 10
42.48336728678367
 20
-10.1259327988115
 30
0.0
 11
39.2259598881227
 21
-10.1259327988115
 31
0.0
  0
TEXT
  5
567
330
1F
100
AcDbEntity
  8
0
100
AcDbText
 10
39.69642493605261
 20
-8.741197576969966
 30
0.0
 40
0.3415300458080503
  1
ELIASON
 50
0.0000000000015987
  7
Text
100
AcDbText
  0
LINE
  5
568
330
1F
100
AcDbEntity
  8
0
100
AcDbLine
 10
39.2259598881227
 20
-10.1259327988115
 30
0.0
 11
39.22595988812272
 21
-7.125932798811504
 31
0.0
  0
LINE
  5
569
330
1F
100
AcDbEntity
  8
0
100
AcDbLine
 10
43.58245180356964
 20
-6.813432798811504
 30
0.0
 11
43.58245180356964
 21
-10.3759327988115
 31
0.0
  0
LINE
  5
56A
330
1F
100
AcDbEntity
  8
0
100
AcDbLine
 10
42.48336728678369
 20
-7.125932798811504
 30
0.0
 11
42.48336728678367
 21
-10.1259327988115
 31
0.0
  0
LINE
  5
56B
330
1F
100
AcDbEntity
  8
0
100
AcDbLine
 10
43.76995180356963
 20
-10.3759327988115
 30
0.0
 11
43.58245180356964
 21
-10.3759327988115
 31
0.0
  0
LINE
  5
56C
330
1F
100
AcDbEntity
  8
0
100
AcDbLine
 10
43.33245180356963
 20
-6.563432798811504
 30
0.0
 11
40.01995180356963
 21
-6.563432798811504
 31
0.0
  0
LINE
  5
56D
330
1F
100
AcDbEntity
  8
0
100
AcDbLine
 10
43.33245180356963
 20
-6.375932798811504
 30
0.0
 11
40.01995180356963
 21
-6.375932798811504
 31
0.0
  0
LINE
  5
56E
330
1F
100
AcDbEntity
  8
0
100
AcDbLine
 10
40.01995180356963
 20
-6.563432798811504
 30
0.0
 11
40.01995180356963
 21
-6.375932798811504
 31
0.0
  0
LINE
  5
56F
330
1F
100
AcDbEntity
  8
0
100
AcDbLine
 10
40.64495180356963
 20
-6.563432798811504
 30
0.0
 11
40.64495180356963
 21
-7.125932798811504
 31
0.0
  0
LINE
  5
570
330
1F
100
AcDbEntity
  8
0
100
AcDbLine
 10
41.39495180356964
 20
-6.563432798811504
 30
0.0
 11
41.39495180356964
 21
-7.125932798811504
 31
0.0
  0
ARC
  5
571
330
1F
100
AcDbEntity
  8
0
100
AcDbCircle
 10
43.33245180356963
 20
-6.813432798811504
 30
0.0
 40
0.25
100
AcDbArc
 50
0.0
 51
90.0
  0
ARC
  5
572
330
1F
100
AcDbEntity
  8
0
100
AcDbCircle
 10
43.33245180356963
 20
-6.813432798811504
 30
0.0
 40
0.4375
100
AcDbArc
 50
0.0
 51
90.0
  0
LINE
  5
573
330
1F
100
AcDbEntity
  8
0
100
AcDbLine
 10
40.64495180356963
 20
-7.125932798811504
 30
0.0
 11
41.39495180356964
 21
-7.125932798811504
 31
0.0
  0
ARC
  5
574
330
1F
100
AcDbEntity
  8
0
100
AcDbCircle
 10
14.01995180356965
 20
-7.125932798811504
 30
0.0
 40
6.0
100
AcDbArc
 50
76.22920092007828
 51
180.0
  0
LINE
  5
575
330
1F
100
AcDbEntity
  8
0
100
AcDbLine
 10
39.22595988812272
 20
-7.125932798811504
 30
0.0
 11
15.44818271896247
 21
-1.298398461519695
 31
0.0
  0
LINE
  5
576
330
1F
100
AcDbEntity
  8
0
100
AcDbLine
 10
43.01995180356963
 20
-7.125932798811504
 30
0.0
 11
39.22595988812272
 21
-7.125932798811504
 31
0.0
  0
LINE
  5
577
330
1F
100
AcDbEntity
  8
0
100
AcDbLine
 10
118.9141880973931
 20
-7.500932798811504
 30
0.0
 11
118.914188097393
 21
-48.12593279881173
 31
0.0
  0
ARC
  5
578
330
1F
100
AcDbEntity
  8
0
100
AcDbCircle
 10
118.5391880973931
 20
-7.500932798811504
 30
0.0
 40
0.375
100
AcDbArc
 50
0.0
 51
90.0
  0
LINE
  5
579
330
1F
100
AcDbEntity
  8
0
100
AcDbLine
 10
83.5391880973931
 20
-7.125932798811504
 30
0.0
 11
83.53918809739306
 21
-47.75093279881173
 31
0.0
  0
LINE
  5
57A
330
1F
100
AcDbEntity
  8
0
100
AcDbLine
 10
118.0026035806071
 20
-10.1259327988115
 30
0.0
 11
114.7451961819461
 21
-10.1259327988115
 31
0.0
  0
TEXT
  5
57B
330
1F
100
AcDbEntity
  8
0
100
AcDbText
 10
115.215661229876
 20
-8.741197576969966
 30
0.0
 40
0.3415300458080503
  1
ELIASON
 50
0.0000000000015987
  7
Text
100
AcDbText
  0
LINE
  5
57C
330
1F
100
AcDbEntity
  8
0
100
AcDbLine
 10
114.7451961819461
 20
-10.1259327988115
 30
0.0
 11
114.7451961819461
 21
-7.125932798811504
 31
0.0
  0
LINE
  5
57D
330
1F
100
AcDbEntity
  8
0
100
AcDbLine
 10
119.1016880973931
 20
-6.813432798811504
 30
0.0
 11
119.1016880973931
 21
-10.3759327988115
 31
0.0
  0
LINE
  5
57E
330
1F
100
AcDbEntity
  8
0
100
AcDbLine
 10
118.0026035806071
 20
-7.125932798811504
 30
0.0
 11
118.0026035806071
 21
-10.1259327988115
 31
0.0
  0
LINE
  5
57F
330
1F
100
AcDbEntity
  8
0
100
AcDbLine
 10
119.2891880973931
 20
-10.3759327988115
 30
0.0
 11
119.1016880973931
 21
-10.3759327988115
 31
0.0
  0
LINE
  5
580
330
1F
100
AcDbEntity
  8
0
100
AcDbLine
 10
118.8516880973931
 20
-6.563432798811504
 30
0.0
 11
115.5391880973931
 21
-6.563432798811504
 31
0.0
  0
LINE
  5
581
330
1F
100
AcDbEntity
  8
0
100
AcDbLine
 10
118.8516880973931
 20
-6.375932798811504
 30
0.0
 11
115.5391880973931
 21
-6.375932798811504
 31
0.0
  0
LINE
  5
582
330
1F
100
AcDbEntity
  8
0
100
AcDbLine
 10
115.5391880973931
 20
-6.563432798811504
 30
0.0
 11
115.5391880973931
 21
-6.375932798811504
 31
0.0
  0
LINE
  5
583
330
1F
100
AcDbEntity
  8
0
100
AcDbLine
 10
116.1641880973931
 20
-6.563432798811504
 30
0.0
 11
116.1641880973931
 21
-7.125932798811504
 31
0.0
  0
LINE
  5
584
330
1F
100
AcDbEntity
  8
0
100
AcDbLine
 10
116.9141880973931
 20
-6.563432798811504
 30
0.0
 11
116.9141880973931
 21
-7.125932798811504
 31
0.0
  0
ARC
  5
585
330
1F
100
AcDbEntity
  8
0
100
AcDbCircle
 10
118.8516880973931
 20
-6.813432798811504
 30
0.0
 40
0.25
100
AcDbArc
 50
0.0
 51
90.0
  0
ARC
  5
586
330
1F
100
AcDbEntity
  8
0
100
AcDbCircle
 10
118.8516880973931
 20
-6.813432798811504
 30
0.0
 40
0.4375
100
AcDbArc
 50
0.0
 51
90.0
  0
LINE
  5
587
330
1F
100
AcDbEntity
  8
0
100
AcDbLine
 10
116.1641880973931
 20
-7.125932798811504
 30
0.0
 11
116.9141880973931
 21
-7.125932798811504
 31
0.0
  0
ARC
  5
588
330
1F
100
AcDbEntity
  8
0
100
AcDbCircle
 10
89.5391880973931
 20
-7.125932798811504
 30
0.0
 40
6.0
100
AcDbArc
 50
76.22920092007849
 51
180.0
  0
LINE
  5
589
330
1F
100
AcDbEntity
  8
0
100
AcDbLine
 10
114.7451961819461
 20
-7.125932798811504
 30
0.0
 11
90.96741901278591
 21
-1.298398461519695
 31
0.0
  0
LINE
  5
58A
330
1F
100
AcDbEntity
  8
0
100
AcDbLine
 10
118.5391880973931
 20
-7.125932798811504
 30
0.0
 11
114.7451961819461
 21
-7.125932798811504
 31
0.0
  0
ENDSEC
  0
SECTION
  2
OBJECTS
  0
DICTIONARY
  5
C
330
0
100
AcDbDictionary
281
     1
  3
ACAD_COLOR
350
73
  3
ACAD_GROUP
350
D
  3
ACAD_LAYOUT
350
1A
  3
ACAD_MATERIAL
350
72
  3
ACAD_MLINESTYLE
350
17
  3
ACAD_PLOTSETTINGS
350
19
  3
ACAD_PLOTSTYLENAME
350
E
  3
ACAD_TABLESTYLE
350
86
  3
ACDBHEADERROUNDTRIPXREC
350
596
  3
AcDbVariableDictionary
350
66
  0
DICTIONARY
  5
73
102
{ACAD_REACTORS
330
C
102
}
330
C
100
AcDbDictionary
281
     1
  0
DICTIONARY
  5
D
102
{ACAD_REACTORS
330
C
102
}
330
C
100
AcDbDictionary
281
     1
  0
DICTIONARY
  5
1A
102
{ACAD_REACTORS
330
C
102
}
330
C
100
AcDbDictionary
281
     1
  3
Layout1
350
59
  3
Layout2
350
5E
  3
Model
350
22
  0
DICTIONARY
  5
72
102
{ACAD_REACTORS
330
C
102
}
330
C
100
AcDbDictionary
281
     1
  0
DICTIONARY
  5
17
102
{ACAD_REACTORS
330
C
102
}
330
C
100
AcDbDictionary
281
     1
  3
Standard
350
18
  0
DICTIONARY
  5
19
102
{ACAD_REACTORS
330
C
102
}
330
C
100
AcDbDictionary
281
     1
  0
ACDBDICTIONARYWDFLT
  5
E
102
{ACAD_REACTORS
330
C
102
}
330
C
100
AcDbDictionary
281
     1
  3
Normal
350
F
100
AcDbDictionaryWithDefault
340
F
  0
DICTIONARY
  5
86
102
{ACAD_REACTORS
330
C
102
}
330
C
100
AcDbDictionary
281
     1
  3
Standard
350
87
  0
DICTIONARY
  5
596
102
{ACAD_REACTORS
330
C
102
}
330
C
100
AcDbDictionary
281
     1
  0
DICTIONARY
  5
66
102
{ACAD_REACTORS
330
C
102
}
330
C
100
AcDbDictionary
281
     1
  3
CTABLESTYLE
350
47D
  3
DIMASSOC
350
67
  3
HIDETEXT
350
6B
  3
PROJECTNAME
350
594
  0
LAYOUT
  5
59
102
{ACAD_XDICTIONARY
360
599
102
}
102
{ACAD_REACTORS
330
1A
102
}
330
1A
100
AcDbPlotSettings
  1

  2
None
  4

  6

 40
0.0
 41
0.0
 42
0.0
 43
0.0
 44
0.0
 45
0.0
 46
0.0
 47
0.0
 48
0.0
 49
0.0
140
0.0
141
0.0
142
1.0
143
1.0
 70
   688
 72
     0
 73
     0
 74
     5
  7

 75
    16
147
1.0
148
0.0
149
0.0
100
AcDbLayout
  1
Layout1
 70
     1
 71
     1
 10
0.0
 20
0.0
 11
12.0
 21
9.0
 12
0.0
 22
0.0
 32
0.0
 14
0.0
 24
0.0
 34
0.0
 15
0.0
 25
0.0
 35
0.0
146
0.0
 13
0.0
 23
0.0
 33
0.0
 16
1.0
 26
0.0
 36
0.0
 17
0.0
 27
1.0
 37
0.0
 76
     0
330
58
  0
LAYOUT
  5
5E
102
{ACAD_XDICTIONARY
360
59B
102
}
102
{ACAD_REACTORS
330
1A
102
}
330
1A
100
AcDbPlotSettings
  1

  2
None
  4

  6

 40
0.0
 41
0.0
 42
0.0
 43
0.0
 44
0.0
 45
0.0
 46
0.0
 47
0.0
 48
0.0
 49
0.0
140
0.0
141
0.0
142
1.0
143
1.0
 70
   688
 72
     0
 73
     0
 74
     5
  7

 75
    16
147
1.0
148
0.0
149
0.0
100
AcDbLayout
  1
Layout2
 70
     1
 71
     2
 10
0.0
 20
0.0
 11
12.0
 21
9.0
 12
0.0
 22
0.0
 32
0.0
 14
0.0
 24
0.0
 34
0.0
 15
0.0
 25
0.0
 35
0.0
146
0.0
 13
0.0
 23
0.0
 33
0.0
 16
1.0
 26
0.0
 36
0.0
 17
0.0
 27
1.0
 37
0.0
 76
     0
330
5D
  0
LAYOUT
  5
22
102
{ACAD_XDICTIONARY
360
597
102
}
102
{ACAD_REACTORS
330
1A
102
}
330
1A
100
AcDbPlotSettings
  1

  2
none_device
  4
ANSI_A_(8.50_x_11.00_Inches)
  6

 40
6.349999904632568
 41
19.04999923706055
 42
6.350006103515625
 43
19.04998779296875
 44
215.8999938964844
 45
279.3999938964844
 46
0.0
 47
0.0
 48
0.0
 49
0.0
140
0.0
141
0.0
142
1.0
143
2.584895464708373
 70
 11952
 72
     0
 73
     1
 74
     0
  7

 75
     0
147
0.3868628397755418
148
0.0
149
0.0
100
AcDbLayout
  1
Model
 70
     1
 71
     0
 10
0.0
 20
0.0
 11
12.0
 21
9.0
 12
0.0
 22
0.0
 32
0.0
 14
0.0
 24
0.0
 34
0.0
 15
0.0
 25
0.0
 35
0.0
146
0.0
 13
0.0
 23
0.0
 33
0.0
 16
1.0
 26
0.0
 36
0.0
 17
0.0
 27
1.0
 37
0.0
 76
     0
330
1F
  0
MLINESTYLE
  5
18
102
{ACAD_REACTORS
330
17
102
}
330
17
100
AcDbMlineStyle
  2
STANDARD
 70
     0
  3

 62
   256
 51
90.0
 52
90.0
 71
     2
 49
0.5
 62
   256
  6
BYLAYER
 49
-0.5
 62
   256
  6
BYLAYER
  0
ACDBPLACEHOLDER
  5
F
102
{ACAD_REACTORS
330
E
102
}
330
E
  0
TABLESTYLE
  5
87
102
{ACAD_REACTORS
330
86
102
}
330
86
100
AcDbTableStyle
  3
Standard
 70
     0
 71
     0
 40
0.06
 41
0.06
280
     0
281
     0
  7
Standard
140
0.18
170
     2
 62
     0
 63
     7
283
     0
274
    -2
284
     1
 64
     0
275
    -2
285
     1
 65
     0
276
    -2
286
     1
 66
     0
277
    -2
287
     1
 67
     0
278
    -2
288
     1
 68
     0
279
    -2
289
     1
 69
     0
  7
Standard
140
0.25
170
     5
 62
     0
 63
     7
283
     0
274
    -2
284
     1
 64
     0
275
    -2
285
     1
 65
     0
276
    -2
286
     1
 66
     0
277
    -2
287
     1
 67
     0
278
    -2
288
     1
 68
     0
279
    -2
289
     1
 69
     0
  7
Standard
140
0.18
170
     5
 62
     0
 63
     7
283
     0
274
    -2
284
     1
 64
     0
275
    -2
285
     1
 65
     0
276
    -2
286
     1
 66
     0
277
    -2
287
     1
 67
     0
278
    -2
288
     1
 68
     0
279
    -2
289
     1
 69
     0
  0
DICTIONARYVAR
  5
47D
102
{ACAD_REACTORS
330
66
102
}
330
66
100
DictionaryVariables
280
     0
  1
STANDARD
  0
DICTIONARYVAR
  5
67
102
{ACAD_REACTORS
330
66
102
}
330
66
100
DictionaryVariables
280
     0
  1
2
  0
DICTIONARYVAR
  5
6B
102
{ACAD_REACTORS
330
66
102
}
330
66
100
DictionaryVariables
280
     0
  1
1
  0
DICTIONARYVAR
  5
594
102
{ACAD_REACTORS
330
66
102
}
330
66
100
DictionaryVariables
280
     0
  1

  0
DICTIONARY
  5
599
330
59
100
AcDbDictionary
280
     1
281
     1
  3
ACAD_XREC_ROUNDTRIP
360
59A
  0
DICTIONARY
  5
59B
330
5E
100
AcDbDictionary
280
     1
281
     1
  3
ACAD_XREC_ROUNDTRIP
360
59C
  0
DICTIONARY
  5
597
330
22
100
AcDbDictionary
280
     1
281
     1
  3
ACAD_XREC_ROUNDTRIP
360
598
  0
XRECORD
  5
59A
102
{ACAD_REACTORS
330
599
102
}
330
599
100
AcDbXrecord
280
     1
102
SHADEPLOT
 70
     0
102
SHADEPLOTRESLEVEL
 70
     2
102
SHADEPLOTCUSTOMDPI
 70
   300
  0
XRECORD
  5
59C
102
{ACAD_REACTORS
330
59B
102
}
330
59B
100
AcDbXrecord
280
     1
102
SHADEPLOT
 70
     0
102
SHADEPLOTRESLEVEL
 70
     2
102
SHADEPLOTCUSTOMDPI
 70
   300
  0
XRECORD
  5
598
102
{ACAD_REACTORS
330
597
102
}
330
597
100
AcDbXrecord
280
     1
102
SHADEPLOT
 70
     0
102
SHADEPLOTRESLEVEL
 70
     2
102
SHADEPLOTCUSTOMDPI
 70
   300
  0
ENDSEC
  0
EOF
