  0
SECTION
  2
HEADER
  9
$ACADVER
  1
AC1015
  9
$ACADMAINTVER
 70
    20
  9
$DWGCODEPAGE
  3
ANSI_1252
  9
$INSBASE
 10
0.0
 20
0.0
 30
0.0
  9
$EXTMIN
 10
-19.39218666231415
 20
-61.96048918470331
 30
0.0
  9
$EXTMAX
 10
128.1270496315093
 20
22.0395108152967
 30
0.0
  9
$LIMMIN
 10
0.0
 20
0.0
  9
$LIMMAX
 10
12.0
 20
9.0
  9
$ORTHOMODE
 70
     0
  9
$REGENMODE
 70
     1
  9
$FILLMODE
 70
     1
  9
$QTEXTMODE
 70
     0
  9
$MIRRTEXT
 70
     0
  9
$LTSCALE
 40
1.0
  9
$ATTMODE
 70
     1
  9
$TEXTSIZE
 40
0.2
  9
$TRACEWID
 40
0.05
  9
$TEXTSTYLE
  7
Standard
  9
$CLAYER
  8
0
  9
$CELTYPE
  6
ByLayer
  9
$CECOLOR
 62
   256
  9
$CELTSCALE
 40
1.0
  9
$DISPSILH
 70
     0
  9
$DIMSCALE
 40
10.0
  9
$DIMASZ
 40
0.18
  9
$DIMEXO
 40
0.0625
  9
$DIMDLI
 40
0.38
  9
$DIMRND
 40
0.0
  9
$DIMDLE
 40
0.0
  9
$DIMEXE
 40
0.18
  9
$DIMTP
 40
0.0
  9
$DIMTM
 40
0.0
  9
$DIMTXT
 40
0.18
  9
$DIMCEN
 40
0.09
  9
$DIMTSZ
 40
0.0
  9
$DIMTOL
 70
     0
  9
$DIMLIM
 70
     0
  9
$DIMTIH
 70
     1
  9
$DIMTOH
 70
     1
  9
$DIMSE1
 70
     0
  9
$DIMSE2
 70
     0
  9
$DIMTAD
 70
     0
  9
$DIMZIN
 70
     8
  9
$DIMBLK
  1

  9
$DIMASO
 70
     1
  9
$DIMSHO
 70
     1
  9
$DIMPOST
  1
"
  9
$DIMAPOST
  1

  9
$DIMALT
 70
     0
  9
$DIMALTD
 70
     2
  9
$DIMALTF
 40
25.4
  9
$DIMLFAC
 40
1.0
  9
$DIMTOFL
 70
     0
  9
$DIMTVP
 40
0.0
  9
$DIMTIX
 70
     0
  9
$DIMSOXD
 70
     0
  9
$DIMSAH
 70
     0
  9
$DIMBLK1
  1

  9
$DIMBLK2
  1

  9
$DIMSTYLE
  2
Standard
  9
$DIMCLRD
 70
     0
  9
$DIMCLRE
 70
     0
  9
$DIMCLRT
 70
     0
  9
$DIMTFAC
 40
1.0
  9
$DIMGAP
 40
0.09
  9
$DIMJUST
 70
     0
  9
$DIMSD1
 70
     0
  9
$DIMSD2
 70
     0
  9
$DIMTOLJ
 70
     1
  9
$DIMTZIN
 70
     0
  9
$DIMALTZ
 70
     0
  9
$DIMALTTZ
 70
     0
  9
$DIMUPT
 70
     0
  9
$DIMDEC
 70
     6
  9
$DIMTDEC
 70
     6
  9
$DIMALTU
 70
     2
  9
$DIMALTTD
 70
     2
  9
$DIMTXSTY
  7
Standard
  9
$DIMAUNIT
 70
     0
  9
$DIMADEC
 70
     0
  9
$DIMALTRND
 40
0.0
  9
$DIMAZIN
 70
     0
  9
$DIMDSEP
 70
    46
  9
$DIMATFIT
 70
     3
  9
$DIMFRAC
 70
     0
  9
$DIMLDRBLK
  1

  9
$DIMLUNIT
 70
     5
  9
$DIMLWD
 70
    -2
  9
$DIMLWE
 70
    -2
  9
$DIMTMOVE
 70
     0
  9
$LUNITS
 70
     2
  9
$LUPREC
 70
     4
  9
$SKETCHINC
 40
0.1
  9
$FILLETRAD
 40
2.25
  9
$AUNITS
 70
     0
  9
$AUPREC
 70
     0
  9
$MENU
  1
.
  9
$ELEVATION
 40
0.0
  9
$PELEVATION
 40
0.0
  9
$THICKNESS
 40
0.0
  9
$LIMCHECK
 70
     0
  9
$CHAMFERA
 40
0.0
  9
$CHAMFERB
 40
0.0
  9
$CHAMFERC
 40
0.0
  9
$CHAMFERD
 40
0.0
  9
$SKPOLY
 70
     0
  9
$TDCREATE
 40
2454300.297531840
  9
$TDUCREATE
 40
2454300.464198507
  9
$TDUPDATE
 40
2454300.297886319
  9
$TDUUPDATE
 40
2454300.464552986
  9
$TDINDWG
 40
0.0003550231
  9
$TDUSRTIMER
 40
0.0003550231
  9
$USRTIMER
 70
     1
  9
$ANGBASE
 50
0.0
  9
$ANGDIR
 70
     0
  9
$PDMODE
 70
     0
  9
$PDSIZE
 40
0.0
  9
$PLINEWID
 40
0.0
  9
$SPLFRAME
 70
     0
  9
$SPLINETYPE
 70
     6
  9
$SPLINESEGS
 70
     8
  9
$HANDSEED
  5
595
  9
$SURFTAB1
 70
     6
  9
$SURFTAB2
 70
     6
  9
$SURFTYPE
 70
     6
  9
$SURFU
 70
     6
  9
$SURFV
 70
     6
  9
$UCSBASE
  2

  9
$UCSNAME
  2

  9
$UCSORG
 10
0.0
 20
0.0
 30
0.0
  9
$UCSXDIR
 10
1.0
 20
0.0
 30
0.0
  9
$UCSYDIR
 10
0.0
 20
1.0
 30
0.0
  9
$UCSORTHOREF
  2

  9
$UCSORTHOVIEW
 70
     0
  9
$UCSORGTOP
 10
0.0
 20
0.0
 30
0.0
  9
$UCSORGBOTTOM
 10
0.0
 20
0.0
 30
0.0
  9
$UCSORGLEFT
 10
0.0
 20
0.0
 30
0.0
  9
$UCSORGRIGHT
 10
0.0
 20
0.0
 30
0.0
  9
$UCSORGFRONT
 10
0.0
 20
0.0
 30
0.0
  9
$UCSORGBACK
 10
0.0
 20
0.0
 30
0.0
  9
$PUCSBASE
  2

  9
$PUCSNAME
  2

  9
$PUCSORG
 10
0.0
 20
0.0
 30
0.0
  9
$PUCSXDIR
 10
1.0
 20
0.0
 30
0.0
  9
$PUCSYDIR
 10
0.0
 20
1.0
 30
0.0
  9
$PUCSORTHOREF
  2

  9
$PUCSORTHOVIEW
 70
     0
  9
$PUCSORGTOP
 10
0.0
 20
0.0
 30
0.0
  9
$PUCSORGBOTTOM
 10
0.0
 20
0.0
 30
0.0
  9
$PUCSORGLEFT
 10
0.0
 20
0.0
 30
0.0
  9
$PUCSORGRIGHT
 10
0.0
 20
0.0
 30
0.0
  9
$PUCSORGFRONT
 10
0.0
 20
0.0
 30
0.0
  9
$PUCSORGBACK
 10
0.0
 20
0.0
 30
0.0
  9
$USERI1
 70
     0
  9
$USERI2
 70
     0
  9
$USERI3
 70
     0
  9
$USERI4
 70
     0
  9
$USERI5
 70
     0
  9
$USERR1
 40
0.0
  9
$USERR2
 40
0.0
  9
$USERR3
 40
0.0
  9
$USERR4
 40
0.0
  9
$USERR5
 40
0.0
  9
$WORLDVIEW
 70
     1
  9
$SHADEDGE
 70
     3
  9
$SHADEDIF
 70
    70
  9
$TILEMODE
 70
     1
  9
$MAXACTVP
 70
    64
  9
$PINSBASE
 10
0.0
 20
0.0
 30
0.0
  9
$PLIMCHECK
 70
     0
  9
$PEXTMIN
 10
0.0
 20
0.0
 30
0.0
  9
$PEXTMAX
 10
0.0
 20
0.0
 30
0.0
  9
$PLIMMIN
 10
0.0
 20
0.0
  9
$PLIMMAX
 10
12.0
 20
9.0
  9
$UNITMODE
 70
     0
  9
$VISRETAIN
 70
     1
  9
$PLINEGEN
 70
     0
  9
$PSLTSCALE
 70
     1
  9
$TREEDEPTH
 70
  3020
  9
$CMLSTYLE
  2
Standard
  9
$CMLJUST
 70
     0
  9
$CMLSCALE
 40
1.0
  9
$PROXYGRAPHICS
 70
     1
  9
$MEASUREMENT
 70
     0
  9
$CELWEIGHT
370
    -1
  9
$ENDCAPS
280
     0
  9
$JOINSTYLE
280
     0
  9
$LWDISPLAY
290
     0
  9
$INSUNITS
 70
     1
  9
$HYPERLINKBASE
  1

  9
$STYLESHEET
  1

  9
$XEDIT
290
     1
  9
$CEPSNTYPE
380
     0
  9
$PSTYLEMODE
290
     1
  9
$FINGERPRINTGUID
  2
{997A0848-A735-4892-995D-A4E75D4483C7}
  9
$VERSIONGUID
  2
{0FA4DC75-8087-4191-9070-332C35F2E53A}
  9
$EXTNAMES
290
     1
  9
$PSVPSCALE
 40
0.0
  9
$OLESTARTUP
290
     0
  0
ENDSEC
  0
SECTION
  2
CLASSES
  0
CLASS
  1
ACDBDICTIONARYWDFLT
  2
AcDbDictionaryWithDefault
  3
ObjectDBX Classes
 90
        0
280
     0
281
     0
  0
CLASS
  1
ACDBPLACEHOLDER
  2
AcDbPlaceHolder
  3
ObjectDBX Classes
 90
        0
280
     0
281
     0
  0
CLASS
  1
LAYOUT
  2
AcDbLayout
  3
ObjectDBX Classes
 90
        0
280
     0
281
     0
  0
CLASS
  1
DICTIONARYVAR
  2
AcDbDictionaryVar
  3
ObjectDBX Classes
 90
        0
280
     0
281
     0
  0
CLASS
  1
TABLESTYLE
  2
AcDbTableStyle
  3
ObjectDBX Classes
 90
     2047
280
     0
281
     0
  0
CLASS
  1
SORTENTSTABLE
  2
AcDbSortentsTable
  3
ObjectDBX Classes
 90
        0
280
     0
281
     0
  0
ENDSEC
  0
SECTION
  2
TABLES
  0
TABLE
  2
VPORT
  5
8
330
0
100
AcDbSymbolTable
 70
     3
  0
VPORT
  5
58D
330
8
100
AcDbSymbolTableRecord
100
AcDbViewportTableRecord
  2
*Active
 70
     0
 10
0.0
 20
0.0
 11
1.0
 21
1.0
 12
49.18306919921514
 22
-19.34600599876047
 13
0.0
 23
0.0
 14
0.5
 24
0.5
 15
0.5
 25
0.5
 16
0.0
 26
0.0
 36
1.0
 17
0.0
 27
0.0
 37
0.0
 40
124.3263223469623
 41
1.554677206851119
 42
50.0
 43
0.0
 44
0.0
 50
0.0
 51
0.0
 71
     0
 72
  1000
 73
     1
 74
     0
 75
     0
 76
     0
 77
     0
 78
     0
281
     0
 65
     1
110
0.0
120
0.0
130
0.0
111
1.0
121
0.0
131
0.0
112
0.0
122
1.0
132
0.0
 79
     0
146
0.0
  0
ENDTAB
  0
TABLE
  2
LTYPE
  5
5
330
0
100
AcDbSymbolTable
 70
     1
  0
LTYPE
  5
14
330
5
100
AcDbSymbolTableRecord
100
AcDbLinetypeTableRecord
  2
ByBlock
 70
     0
  3

 72
    65
 73
     0
 40
0.0
  0
LTYPE
  5
15
330
5
100
AcDbSymbolTableRecord
100
AcDbLinetypeTableRecord
  2
ByLayer
 70
     0
  3

 72
    65
 73
     0
 40
0.0
  0
LTYPE
  5
16
330
5
100
AcDbSymbolTableRecord
100
AcDbLinetypeTableRecord
  2
Continuous
 70
     0
  3
Solid line
 72
    65
 73
     0
 40
0.0
  0
ENDTAB
  0
TABLE
  2
LAYER
  5
2
330
0
100
AcDbSymbolTable
 70
     1
  0
LAYER
  5
10
330
2
100
AcDbSymbolTableRecord
100
AcDbLayerTableRecord
  2
0
 70
     0
 62
     7
  6
Continuous
370
    -3
390
F
  0
ENDTAB
  0
TABLE
  2
STYLE
  5
3
330
0
100
AcDbSymbolTable
 70
     2
  0
STYLE
  5
11
330
3
100
AcDbSymbolTableRecord
100
AcDbTextStyleTableRecord
  2
Standard
 70
     0
 40
0.0
 41
1.0
 50
0.0
 71
     0
 42
0.2
  3
ARIAL.TTF
  4

1001
ACAD
1000
Arial
1071
       34
  0
STYLE
  5
45A
330
3
100
AcDbSymbolTableRecord
100
AcDbTextStyleTableRecord
  2
Text
 70
     0
 40
0.0
 41
1.0
 50
0.0
 71
     0
 42
0.09375
  3
TIMES.TTF
  4

1001
ACAD
1000
Times New Roman
1071
       18
  0
ENDTAB
  0
TABLE
  2
VIEW
  5
6
330
0
100
AcDbSymbolTable
 70
     0
  0
ENDTAB
  0
TABLE
  2
UCS
  5
7
330
0
100
AcDbSymbolTable
 70
     0
  0
ENDTAB
  0
TABLE
  2
APPID
  5
9
330
0
100
AcDbSymbolTable
 70
     9
  0
APPID
  5
12
330
9
100
AcDbSymbolTableRecord
100
AcDbRegAppTableRecord
  2
ACAD
 70
     0
  0
APPID
  5
8C
330
9
100
AcDbSymbolTableRecord
100
AcDbRegAppTableRecord
  2
ACAD_DSTYLE_DIMTEXT_FILL
 70
     0
  0
APPID
  5
8D
330
9
100
AcDbSymbolTableRecord
100
AcDbRegAppTableRecord
  2
ACAD_DSTYLE_DIMEXT_LENGTH
 70
     0
  0
APPID
  5
8E
330
9
100
AcDbSymbolTableRecord
100
AcDbRegAppTableRecord
  2
ACAD_DSTYLE_DIMEXT_ENABLED
 70
     0
  0
APPID
  5
8F
330
9
100
AcDbSymbolTableRecord
100
AcDbRegAppTableRecord
  2
ACAD_DSTYLE_DIM_LINETYPE
 70
     0
  0
APPID
  5
90
330
9
100
AcDbSymbolTableRecord
100
AcDbRegAppTableRecord
  2
ACAD_DSTYLE_DIM_EXT1_LINETYPE
 70
     0
  0
APPID
  5
91
330
9
100
AcDbSymbolTableRecord
100
AcDbRegAppTableRecord
  2
ACAD_DSTYLE_DIM_EXT2_LINETYPE
 70
     0
  0
APPID
  5
14D
330
9
100
AcDbSymbolTableRecord
100
AcDbRegAppTableRecord
  2
ACAD_DSTYLE_DIMJOGGED_JOGANGLE_SYMBOL
 70
     0
  0
APPID
  5
3F5
330
9
100
AcDbSymbolTableRecord
100
AcDbRegAppTableRecord
  2
ACAD_DSTYLE_DIMARC_LENGTH_SYMBOL
 70
     0
  0
ENDTAB
  0
TABLE
  2
DIMSTYLE
  5
A
330
0
100
AcDbSymbolTable
 70
     1
100
AcDbDimStyleTable
 71
     1
340
27
  0
DIMSTYLE
105
27
330
A
100
AcDbSymbolTableRecord
100
AcDbDimStyleTableRecord
  2
Standard
 70
     0
  3
"
 40
10.0
 78
     8
271
     6
272
     6
277
     5
340
11
1001
ACAD_DSTYLE_DIMEXT_LENGTH
1070
   378
1040
0.18
1001
ACAD_DSTYLE_DIMEXT_ENABLED
1070
   383
1070
     0
1001
ACAD_DSTYLE_DIMARC_LENGTH_SYMBOL
1070
   379
1070
     0
1001
ACAD_DSTYLE_DIMJOGGED_JOGANGLE_SYMBOL
1070
   384
1040
0.7853981633974483
  0
ENDTAB
  0
TABLE
  2
BLOCK_RECORD
  5
1
330
0
100
AcDbSymbolTable
 70
     3
  0
BLOCK_RECORD
  5
1F
330
1
100
AcDbSymbolTableRecord
100
AcDbBlockTableRecord
  2
*Model_Space
340
22
  0
BLOCK_RECORD
  5
58
330
1
100
AcDbSymbolTableRecord
100
AcDbBlockTableRecord
  2
*Paper_Space
340
59
  0
BLOCK_RECORD
  5
5D
330
1
100
AcDbSymbolTableRecord
100
AcDbBlockTableRecord
  2
*Paper_Space0
340
5E
  0
BLOCK_RECORD
  5
45B
330
1
100
AcDbSymbolTableRecord
100
AcDbBlockTableRecord
  2
STD HARDWARE
340
0
1001
ACAD
1000
DesignCenter Data
1002
{
1070
     1
1070
     1
1002
}
  0
ENDTAB
  0
ENDSEC
  0
SECTION
  2
BLOCKS
  0
BLOCK
  5
20
330
1F
100
AcDbEntity
  8
0
100
AcDbBlockBegin
  2
*Model_Space
 70
     0
 10
0.0
 20
0.0
 30
0.0
  3
*Model_Space
  1

  0
ENDBLK
  5
21
330
1F
100
AcDbEntity
  8
0
100
AcDbBlockEnd
  0
BLOCK
  5
5A
330
58
100
AcDbEntity
 67
     1
  8
0
100
AcDbBlockBegin
  2
*Paper_Space
 70
     0
 10
0.0
 20
0.0
 30
0.0
  3
*Paper_Space
  1

  0
ENDBLK
  5
5B
330
58
100
AcDbEntity
 67
     1
  8
0
100
AcDbBlockEnd
  0
BLOCK
  5
5F
330
5D
100
AcDbEntity
 67
     1
  8
0
100
AcDbBlockBegin
  2
*Paper_Space0
 70
     0
 10
0.0
 20
0.0
 30
0.0
  3
*Paper_Space0
  1

  0
ENDBLK
  5
60
330
5D
100
AcDbEntity
 67
     1
  8
0
100
AcDbBlockEnd
  0
BLOCK
  5
478
330
45B
100
AcDbEntity
  8
0
100
AcDbBlockBegin
  2
STD HARDWARE
 70
     0
 10
0.0
 20
0.0
 30
0.0
  3
STD HARDWARE
  1

  0
LINE
  5
45C
330
45B
100
AcDbEntity
  8
0
100
AcDbLine
 10
82.12366255362965
 20
8.756831083884661
 30
0.0
 11
76.86625515496868
 21
8.756831083884661
 31
0.0
  0
TEXT
  5
45D
330
45B
100
AcDbEntity
  8
0
100
AcDbText
 10
77.99045541258468
 20
10.2831493526444
 30
0.0
 40
0.4775366748046875
  1
ELIASON
 50
0.0000000000016284
  7
Text
100
AcDbText
  0
LINE
  5
45E
330
45B
100
AcDbEntity
  8
0
100
AcDbLine
 10
68.84275595548828
 20
7.684993821821556
 30
0.0
 11
68.84275595548828
 21
11.9196923132278
 31
0.0
  0
LINE
  5
45F
330
45B
100
AcDbEntity
  8
0
100
AcDbLine
 10
69.00991510646488
 20
7.684993821821556
 30
0.0
 11
69.00991510646488
 21
11.9196923132278
 31
0.0
  0
LINE
  5
460
330
45B
100
AcDbEntity
  8
0
100
AcDbLine
 10
66.05677010587894
 20
7.462114953852811
 30
0.0
 11
68.61987708751954
 21
7.462114953852811
 31
0.0
  0
LINE
  5
461
330
45B
100
AcDbEntity
  8
0
100
AcDbLine
 10
66.05677010587894
 20
7.294955802876238
 30
0.0
 11
68.61987708751954
 21
7.294955802876238
 31
0.0
  0
CIRCLE
  5
462
330
45B
100
AcDbEntity
  8
0
100
AcDbCircle
 10
66.27964897384768
 20
8.576509293696553
 30
0.0
 40
0.1671591509765625
  0
LWPOLYLINE
  5
463
330
45B
100
AcDbEntity
  8
0
100
AcDbPolyline
 90
        4
 70
     1
 43
0.0
 10
67.61692218166027
 20
9.913782501509068
 10
64.94237576603532
 20
9.913782501509068
 10
64.94237576603532
 20
8.10745580287624
 10
67.61692218166027
 20
8.107455802876238
  0
LINE
  5
464
330
45B
100
AcDbEntity
  8
0
100
AcDbLine
 10
66.05677010587894
 20
7.294955802876238
 30
0.0
 11
66.05677010587894
 21
7.462114953852811
 31
0.0
  0
CIRCLE
  5
465
330
45B
100
AcDbEntity
  8
0
100
AcDbCircle
 10
65.3324137849805
 20
9.468024765571549
 30
0.0
 40
0.1671591509765625
  0
LWPOLYLINE
  5
466
330
45B
100
AcDbEntity
  8
0
100
AcDbPolyline
 90
        4
 70
     0
 43
0.0
 10
66.94828557775386
 20
8.107455802876238
 10
66.94828557775386
 20
7.462114953852811
 10
67.39404331369147
 20
7.462114953852811
 10
67.39404331369147
 20
8.107455802876238
  0
CIRCLE
  5
467
330
45B
100
AcDbEntity
  8
0
100
AcDbCircle
 10
67.22688416271487
 20
9.468024765571549
 30
0.0
 40
0.1671591509765625
  0
ARC
  5
468
330
45B
100
AcDbEntity
  8
0
100
AcDbCircle
 10
68.61987708751954
 20
7.684993821821556
 30
0.0
 40
0.3900380189453125
100
AcDbArc
 50
270.0
 51
0.0
  0
LINE
  5
469
330
45B
100
AcDbEntity
  8
0
100
AcDbLine
 10
68.61987708751954
 20
7.294955802876238
 30
0.0
 11
69.00991510646488
 21
7.294955802876238
 31
0.0
  0
ARC
  5
46A
330
45B
100
AcDbEntity
  8
0
100
AcDbCircle
 10
68.61987708751954
 20
7.684993821821556
 30
0.0
 40
0.22287886796875
100
AcDbArc
 50
270.0
 51
0.0
  0
LINE
  5
46B
330
45B
100
AcDbEntity
  8
0
100
AcDbLine
 10
68.84275595548828
 20
11.9196923132278
 30
0.0
 11
69.00991510646488
 21
11.9196923132278
 31
0.0
  0
LINE
  5
46C
330
45B
100
AcDbEntity
  8
0
100
AcDbLine
 10
76.86625515496868
 20
8.756831083884661
 30
0.0
 11
76.86625515496868
 21
12.50683108388466
 31
0.0
  0
LINE
  5
46D
330
45B
100
AcDbEntity
  8
0
100
AcDbLine
 10
83.43951374096471
 20
12.81933108388466
 30
0.0
 11
83.43951374096471
 21
9.256831083884662
 31
0.0
  0
LINE
  5
46E
330
45B
100
AcDbEntity
  8
0
100
AcDbLine
 10
82.12366255362965
 20
12.50683108388466
 30
0.0
 11
82.12366255362965
 21
8.756831083884661
 31
0.0
  0
LINE
  5
46F
330
45B
100
AcDbEntity
  8
0
100
AcDbLine
 10
83.62701374096472
 20
9.256831083884662
 30
0.0
 11
83.43951374096471
 21
9.256831083884662
 31
0.0
  0
LINE
  5
470
330
45B
100
AcDbEntity
  8
0
100
AcDbLine
 10
83.18951374096471
 20
13.06933108388466
 30
0.0
 11
78.37701374096472
 21
13.06933108388466
 31
0.0
  0
LINE
  5
471
330
45B
100
AcDbEntity
  8
0
100
AcDbLine
 10
83.18951374096471
 20
13.25683108388466
 30
0.0
 11
78.37701374096472
 21
13.25683108388466
 31
0.0
  0
LINE
  5
472
330
45B
100
AcDbEntity
  8
0
100
AcDbLine
 10
78.37701374096472
 20
13.06933108388466
 30
0.0
 11
78.37701374096472
 21
13.25683108388466
 31
0.0
  0
LINE
  5
473
330
45B
100
AcDbEntity
  8
0
100
AcDbLine
 10
79.43951374096471
 20
13.06933108388466
 30
0.0
 11
79.43951374096471
 21
12.50683108388466
 31
0.0
  0
LINE
  5
474
330
45B
100
AcDbEntity
  8
0
100
AcDbLine
 10
80.31451374096471
 20
13.06933108388466
 30
0.0
 11
80.31451374096471
 21
12.50683108388466
 31
0.0
  0
ARC
  5
475
330
45B
100
AcDbEntity
  8
0
100
AcDbCircle
 10
83.18951374096471
 20
12.81933108388466
 30
0.0
 40
0.25
100
AcDbArc
 50
0.0
 51
90.0
  0
LINE
  5
476
330
45B
100
AcDbEntity
  8
0
100
AcDbLine
 10
83.62701374096472
 20
13.25683108388466
 30
0.0
 11
83.18951374096471
 21
13.25683108388466
 31
0.0
  0
ARC
  5
477
330
45B
100
AcDbEntity
  8
0
100
AcDbCircle
 10
83.18951374096471
 20
12.81933108388466
 30
0.0
 40
0.4375
100
AcDbArc
 50
0.0
 51
90.0
  0
ENDBLK
  5
479
330
45B
100
AcDbEntity
  8
0
100
AcDbBlockEnd
  0
ENDSEC
  0
SECTION
  2
ENTITIES
  0
LINE
  5
506
330
1F
100
AcDbEntity
  8
0
100
AcDbLine
 10
-19.39218666231414
 20
22.0395108152967
 30
0.0
 11
52.60781333768585
 21
22.0395108152967
 31
0.0
  0
LINE
  5
507
330
1F
100
AcDbEntity
  8
0
100
AcDbLine
 10
52.60781333768585
 20
22.0395108152967
 30
0.0
 11
52.60781333768584
 21
-61.96048918470331
 31
0.0
  0
LINE
  5
508
330
1F
100
AcDbEntity
  8
0
100
AcDbLine
 10
52.23281333768586
 20
-10.3354891847033
 30
0.0
 11
52.23281333768586
 21
-56.96048918470353
 31
0.0
  0
ARC
  5
509
330
1F
100
AcDbEntity
  8
0
100
AcDbCircle
 10
51.85781333768585
 20
-10.3354891847033
 30
0.0
 40
0.375
100
AcDbArc
 50
0.0
 51
90.0
  0
LINE
  5
50A
330
1F
100
AcDbEntity
  8
0
100
AcDbLine
 10
52.60781333768584
 20
-61.96048918470331
 30
0.0
 11
-19.39218666231415
 21
-61.96048918470331
 31
0.0
  0
LINE
  5
50B
330
1F
100
AcDbEntity
  8
0
100
AcDbLine
 10
52.23281333768586
 20
-56.96048918470353
 30
0.0
 11
52.05357107362345
 21
-56.96048918470353
 31
0.0
  0
LINE
  5
50C
330
1F
100
AcDbEntity
  8
0
100
AcDbLine
 10
49.55357107362347
 20
-56.96048918470353
 30
0.0
 11
17.23281333768584
 21
-56.96048918470353
 31
0.0
  0
ARC
  5
50D
330
1F
100
AcDbEntity
  8
0
100
AcDbCircle
 10
17.23281333768585
 20
-56.58548918470353
 30
0.0
 40
0.375
100
AcDbArc
 50
180.0
 51
269.9999999999996
  0
LINE
  5
50E
330
1F
100
AcDbEntity
  8
0
100
AcDbLine
 10
51.85781333768585
 20
-9.960489184703305
 30
0.0
 11
17.23281333768585
 21
-9.960489184703305
 31
0.0
  0
LINE
  5
50F
330
1F
100
AcDbEntity
  8
0
100
AcDbLine
 10
-19.39218666231415
 20
-61.96048918470331
 30
0.0
 11
-19.39218666231414
 21
22.0395108152967
 31
0.0
  0
LINE
  5
510
330
1F
100
AcDbEntity
  8
0
100
AcDbLine
 10
92.12704963150928
 20
22.0395108152967
 30
0.0
 11
128.1270496315093
 21
22.0395108152967
 31
0.0
  0
LINE
  5
511
330
1F
100
AcDbEntity
  8
0
100
AcDbLine
 10
128.1270496315093
 20
22.0395108152967
 30
0.0
 11
128.1270496315093
 21
-61.96048918470331
 31
0.0
  0
LINE
  5
512
330
1F
100
AcDbEntity
  8
0
100
AcDbLine
 10
128.1270496315093
 20
-61.96048918470331
 30
0.0
 11
92.12704963150928
 21
-61.96048918470331
 31
0.0
  0
LINE
  5
513
330
1F
100
AcDbEntity
  8
0
100
AcDbLine
 10
92.12704963150928
 20
-61.96048918470331
 30
0.0
 11
92.12704963150928
 21
22.0395108152967
 31
0.0
  0
LINE
  5
514
330
1F
100
AcDbEntity
  8
0
100
AcDbLine
 10
16.85781333768585
 20
-10.3354891847033
 30
0.0
 11
16.85781333768584
 21
-56.58548918470353
 31
0.0
  0
ARC
  5
515
330
1F
100
AcDbEntity
  8
0
100
AcDbCircle
 10
17.23281333768585
 20
-10.3354891847033
 30
0.0
 40
0.375
100
AcDbArc
 50
90.0
 51
180.0
  0
LINE
  5
516
330
1F
100
AcDbEntity
  8
0
100
AcDbLine
 10
52.44065418670924
 20
-57.57045116575807
 30
0.0
 11
52.44065418670924
 21
-52.96075267435174
 31
0.0
  0
LINE
  5
517
330
1F
100
AcDbEntity
  8
0
100
AcDbLine
 10
52.60781333768584
 20
-57.57045116575807
 30
0.0
 11
52.60781333768584
 21
-52.96075267435174
 31
0.0
  0
LINE
  5
518
330
1F
100
AcDbEntity
  8
0
100
AcDbLine
 10
50.85781333768586
 20
-57.79333003372665
 30
0.0
 11
52.2177753187405
 21
-57.79333003372665
 31
0.0
  0
LINE
  5
519
330
1F
100
AcDbEntity
  8
0
100
AcDbLine
 10
50.85781333768586
 20
-57.9604891847033
 30
0.0
 11
52.2177753187405
 21
-57.9604891847033
 31
0.0
  0
CIRCLE
  5
51A
330
1F
100
AcDbEntity
  8
0
100
AcDbCircle
 10
50.80912482477204
 20
-56.67893569388309
 30
0.0
 40
0.1671591509765625
  0
LINE
  5
51B
330
1F
100
AcDbEntity
  8
0
100
AcDbLine
 10
49.55357107362347
 20
-57.1479891847033
 30
0.0
 11
52.05357107362345
 21
-57.1479891847033
 31
0.0
  0
LINE
  5
51C
330
1F
100
AcDbEntity
  8
0
100
AcDbLine
 10
49.55357107362347
 20
-55.1479891847033
 30
0.0
 11
52.05357107362345
 21
-55.1479891847033
 31
0.0
  0
LINE
  5
51D
330
1F
100
AcDbEntity
  8
0
100
AcDbLine
 10
50.85781333768586
 20
-57.9604891847033
 30
0.0
 11
50.85781333768586
 21
-57.79333003372665
 31
0.0
  0
CIRCLE
  5
51E
330
1F
100
AcDbEntity
  8
0
100
AcDbCircle
 10
49.86162448784866
 20
-55.49534401706194
 30
0.0
 40
0.1671591509765625
  0
CIRCLE
  5
51F
330
1F
100
AcDbEntity
  8
0
100
AcDbCircle
 10
51.75609486558302
 20
-55.49534401706194
 30
0.0
 40
0.1671591509765625
  0
ARC
  5
520
330
1F
100
AcDbEntity
  8
0
100
AcDbCircle
 10
52.2177753187405
 20
-57.57045116575807
 30
0.0
 40
0.3900380189453125
100
AcDbArc
 50
270.0
 51
0.0
  0
ARC
  5
521
330
1F
100
AcDbEntity
  8
0
100
AcDbCircle
 10
52.2177753187405
 20
-57.57045116575807
 30
0.0
 40
0.22287886796875
100
AcDbArc
 50
270.0
 51
0.0
  0
LINE
  5
522
330
1F
100
AcDbEntity
  8
0
100
AcDbLine
 10
52.44065418670924
 20
-52.96075267435174
 30
0.0
 11
52.60781333768584
 21
-52.96075267435174
 31
0.0
  0
LINE
  5
523
330
1F
100
AcDbEntity
  8
0
100
AcDbLine
 10
51.85781333768584
 20
-57.1479891847033
 30
0.0
 11
51.85781333768584
 21
-57.79333003372665
 31
0.0
  0
LINE
  5
524
330
1F
100
AcDbEntity
  8
0
100
AcDbLine
 10
51.35781333768584
 20
-57.1479891847033
 30
0.0
 11
51.35781333768584
 21
-57.79333003372665
 31
0.0
  0
LINE
  5
525
330
1F
100
AcDbEntity
  8
0
100
AcDbLine
 10
49.55357107362347
 20
-57.1479891847033
 30
0.0
 11
49.55357107362347
 21
-55.1479891847033
 31
0.0
  0
LINE
  5
526
330
1F
100
AcDbEntity
  8
0
100
AcDbLine
 10
52.05357107362345
 20
-57.1479891847033
 30
0.0
 11
52.05357107362345
 21
-55.1479891847033
 31
0.0
  0
LINE
  5
527
330
1F
100
AcDbEntity
  8
0
100
AcDbLine
 10
51.32122882089989
 20
-12.9604891847033
 30
0.0
 11
48.06382142223892
 21
-12.9604891847033
 31
0.0
  0
TEXT
  5
528
330
1F
100
AcDbEntity
  8
0
100
AcDbText
 10
48.53428647016882
 20
-11.57575396286177
 30
0.0
 40
0.3415300458080503
  1
ELIASON
 50
0.0000000000016284
  7
Text
100
AcDbText
  0
LINE
  5
529
330
1F
100
AcDbEntity
  8
0
100
AcDbLine
 10
48.06382142223892
 20
-12.9604891847033
 30
0.0
 11
48.06382142223892
 21
-9.960489184703305
 31
0.0
  0
LINE
  5
52A
330
1F
100
AcDbEntity
  8
0
100
AcDbLine
 10
52.42031333768585
 20
-9.647989184703305
 30
0.0
 11
52.42031333768585
 21
-13.2104891847033
 31
0.0
  0
LINE
  5
52B
330
1F
100
AcDbEntity
  8
0
100
AcDbLine
 10
51.32122882089989
 20
-9.960489184703305
 30
0.0
 11
51.32122882089989
 21
-12.9604891847033
 31
0.0
  0
LINE
  5
52C
330
1F
100
AcDbEntity
  8
0
100
AcDbLine
 10
52.60781333768585
 20
-13.2104891847033
 30
0.0
 11
52.42031333768585
 21
-13.2104891847033
 31
0.0
  0
LINE
  5
52D
330
1F
100
AcDbEntity
  8
0
100
AcDbLine
 10
52.17031333768585
 20
-9.397989184703305
 30
0.0
 11
48.85781333768585
 21
-9.397989184703305
 31
0.0
  0
LINE
  5
52E
330
1F
100
AcDbEntity
  8
0
100
AcDbLine
 10
52.17031333768585
 20
-9.210489184703305
 30
0.0
 11
48.85781333768585
 21
-9.210489184703305
 31
0.0
  0
LINE
  5
52F
330
1F
100
AcDbEntity
  8
0
100
AcDbLine
 10
48.85781333768585
 20
-9.397989184703305
 30
0.0
 11
48.85781333768585
 21
-9.210489184703305
 31
0.0
  0
LINE
  5
530
330
1F
100
AcDbEntity
  8
0
100
AcDbLine
 10
49.48281333768585
 20
-9.397989184703305
 30
0.0
 11
49.48281333768585
 21
-9.960489184703305
 31
0.0
  0
LINE
  5
531
330
1F
100
AcDbEntity
  8
0
100
AcDbLine
 10
50.23281333768585
 20
-9.397989184703305
 30
0.0
 11
50.23281333768585
 21
-9.960489184703305
 31
0.0
  0
ARC
  5
532
330
1F
100
AcDbEntity
  8
0
100
AcDbCircle
 10
52.17031333768585
 20
-9.647989184703305
 30
0.0
 40
0.25
100
AcDbArc
 50
0.0
 51
90.0
  0
ARC
  5
533
330
1F
100
AcDbEntity
  8
0
100
AcDbCircle
 10
52.17031333768585
 20
-9.647989184703305
 30
0.0
 40
0.4375
100
AcDbArc
 50
0.0
 51
90.0
  0
LINE
  5
534
330
1F
100
AcDbEntity
  8
0
100
AcDbLine
 10
49.48281333768585
 20
-9.960489184703305
 30
0.0
 11
50.23281333768585
 21
-9.960489184703305
 31
0.0
  0
LINE
  5
535
330
1F
100
AcDbEntity
  8
0
100
AcDbLine
 10
-19.01718666231414
 20
-10.3354891847033
 30
0.0
 11
-19.01718666231416
 21
-56.96048918470353
 31
0.0
  0
LINE
  5
536
330
1F
100
AcDbEntity
  8
0
100
AcDbLine
 10
-19.01718666231416
 20
-56.96048918470353
 30
0.0
 11
-18.83794439825175
 21
-56.96048918470353
 31
0.0
  0
LINE
  5
537
330
1F
100
AcDbEntity
  8
0
100
AcDbLine
 10
-16.33794439825178
 20
-56.96048918470353
 30
0.0
 11
15.98281333768585
 21
-56.96048918470353
 31
0.0
  0
ARC
  5
538
330
1F
100
AcDbEntity
  8
0
100
AcDbCircle
 10
15.98281333768584
 20
-56.58548918470353
 30
0.0
 40
0.375
100
AcDbArc
 50
270.0000000000004
 51
0.0
  0
LINE
  5
539
330
1F
100
AcDbEntity
  8
0
100
AcDbLine
 10
-18.64218666231414
 20
-9.960489184703305
 30
0.0
 11
15.98281333768585
 21
-9.960489184703305
 31
0.0
  0
ARC
  5
53A
330
1F
100
AcDbEntity
  8
0
100
AcDbCircle
 10
-18.64218666231414
 20
-10.3354891847033
 30
0.0
 40
0.375
100
AcDbArc
 50
90.0
 51
180.0
  0
LINE
  5
53B
330
1F
100
AcDbEntity
  8
0
100
AcDbLine
 10
16.35781333768585
 20
-10.3354891847033
 30
0.0
 11
16.35781333768584
 21
-56.58548918470353
 31
0.0
  0
ARC
  5
53C
330
1F
100
AcDbEntity
  8
0
100
AcDbCircle
 10
15.98281333768585
 20
-10.3354891847033
 30
0.0
 40
0.375
100
AcDbArc
 50
0.0
 51
90.0
  0
LINE
  5
53D
330
1F
100
AcDbEntity
  8
0
100
AcDbLine
 10
-19.22502751133755
 20
-57.57045116575807
 30
0.0
 11
-19.22502751133755
 21
-52.96075267435174
 31
0.0
  0
LINE
  5
53E
330
1F
100
AcDbEntity
  8
0
100
AcDbLine
 10
-19.39218666231415
 20
-57.57045116575807
 30
0.0
 11
-19.39218666231415
 21
-52.96075267435174
 31
0.0
  0
LINE
  5
53F
330
1F
100
AcDbEntity
  8
0
100
AcDbLine
 10
-17.64218666231418
 20
-57.79333003372665
 30
0.0
 11
-19.0021486433688
 21
-57.79333003372665
 31
0.0
  0
LINE
  5
540
330
1F
100
AcDbEntity
  8
0
100
AcDbLine
 10
-17.64218666231418
 20
-57.9604891847033
 30
0.0
 11
-19.0021486433688
 21
-57.9604891847033
 31
0.0
  0
CIRCLE
  5
541
330
1F
100
AcDbEntity
  8
0
100
AcDbCircle
 10
-17.59349814940035
 20
-56.67893569388309
 30
0.0
 40
0.1671591509765625
  0
LINE
  5
542
330
1F
100
AcDbEntity
  8
0
100
AcDbLine
 10
-16.33794439825178
 20
-57.1479891847033
 30
0.0
 11
-18.83794439825176
 21
-57.1479891847033
 31
0.0
  0
LINE
  5
543
330
1F
100
AcDbEntity
  8
0
100
AcDbLine
 10
-16.33794439825178
 20
-55.1479891847033
 30
0.0
 11
-18.83794439825176
 21
-55.1479891847033
 31
0.0
  0
LINE
  5
544
330
1F
100
AcDbEntity
  8
0
100
AcDbLine
 10
-17.64218666231418
 20
-57.9604891847033
 30
0.0
 11
-17.64218666231418
 21
-57.79333003372665
 31
0.0
  0
CIRCLE
  5
545
330
1F
100
AcDbEntity
  8
0
100
AcDbCircle
 10
-16.64599781247697
 20
-55.49534401706194
 30
0.0
 40
0.1671591509765625
  0
CIRCLE
  5
546
330
1F
100
AcDbEntity
  8
0
100
AcDbCircle
 10
-18.54046819021133
 20
-55.49534401706194
 30
0.0
 40
0.1671591509765625
  0
ARC
  5
547
330
1F
100
AcDbEntity
  8
0
100
AcDbCircle
 10
-19.0021486433688
 20
-57.57045116575807
 30
0.0
 40
0.3900380189453125
100
AcDbArc
 50
180.0
 51
270.0
  0
ARC
  5
548
330
1F
100
AcDbEntity
  8
0
100
AcDbCircle
 10
-19.0021486433688
 20
-57.57045116575807
 30
0.0
 40
0.22287886796875
100
AcDbArc
 50
180.0
 51
270.0
  0
LINE
  5
549
330
1F
100
AcDbEntity
  8
0
100
AcDbLine
 10
-19.22502751133755
 20
-52.96075267435174
 30
0.0
 11
-19.39218666231415
 21
-52.96075267435174
 31
0.0
  0
LINE
  5
54A
330
1F
100
AcDbEntity
  8
0
100
AcDbLine
 10
-18.64218666231415
 20
-57.1479891847033
 30
0.0
 11
-18.64218666231415
 21
-57.79333003372665
 31
0.0
  0
LINE
  5
54B
330
1F
100
AcDbEntity
  8
0
100
AcDbLine
 10
-18.14218666231415
 20
-57.1479891847033
 30
0.0
 11
-18.14218666231415
 21
-57.79333003372665
 31
0.0
  0
LINE
  5
54C
330
1F
100
AcDbEntity
  8
0
100
AcDbLine
 10
-16.33794439825178
 20
-57.1479891847033
 30
0.0
 11
-16.33794439825178
 21
-55.1479891847033
 31
0.0
  0
LINE
  5
54D
330
1F
100
AcDbEntity
  8
0
100
AcDbLine
 10
-18.83794439825176
 20
-57.1479891847033
 30
0.0
 11
-18.83794439825176
 21
-55.1479891847033
 31
0.0
  0
LINE
  5
54E
330
1F
100
AcDbEntity
  8
0
100
AcDbLine
 10
-18.10560214552818
 20
-12.9604891847033
 30
0.0
 11
-14.84819474686721
 21
-12.9604891847033
 31
0.0
  0
TEXT
  5
54F
330
1F
100
AcDbEntity
  8
0
100
AcDbText
 10
-17.47889273774883
 20
-11.57575396286177
 30
0.0
 40
0.3415300458080503
  1
ELIASON
 50
359.9999999999984
  7
Text
100
AcDbText
  0
LINE
  5
550
330
1F
100
AcDbEntity
  8
0
100
AcDbLine
 10
-14.84819474686721
 20
-12.9604891847033
 30
0.0
 11
-14.84819474686721
 21
-9.960489184703305
 31
0.0
  0
LINE
  5
551
330
1F
100
AcDbEntity
  8
0
100
AcDbLine
 10
-19.20468666231414
 20
-9.647989184703305
 30
0.0
 11
-19.20468666231414
 21
-13.2104891847033
 31
0.0
  0
LINE
  5
552
330
1F
100
AcDbEntity
  8
0
100
AcDbLine
 10
-18.10560214552818
 20
-9.960489184703305
 30
0.0
 11
-18.10560214552818
 21
-12.9604891847033
 31
0.0
  0
LINE
  5
553
330
1F
100
AcDbEntity
  8
0
100
AcDbLine
 10
-19.39218666231414
 20
-13.2104891847033
 30
0.0
 11
-19.20468666231414
 21
-13.2104891847033
 31
0.0
  0
LINE
  5
554
330
1F
100
AcDbEntity
  8
0
100
AcDbLine
 10
-18.95468666231414
 20
-9.397989184703305
 30
0.0
 11
-15.64218666231414
 21
-9.397989184703305
 31
0.0
  0
LINE
  5
555
330
1F
100
AcDbEntity
  8
0
100
AcDbLine
 10
-18.95468666231414
 20
-9.210489184703305
 30
0.0
 11
-15.64218666231414
 21
-9.210489184703305
 31
0.0
  0
LINE
  5
556
330
1F
100
AcDbEntity
  8
0
100
AcDbLine
 10
-15.64218666231414
 20
-9.397989184703305
 30
0.0
 11
-15.64218666231414
 21
-9.210489184703305
 31
0.0
  0
LINE
  5
557
330
1F
100
AcDbEntity
  8
0
100
AcDbLine
 10
-16.26718666231414
 20
-9.397989184703305
 30
0.0
 11
-16.26718666231414
 21
-9.960489184703305
 31
0.0
  0
LINE
  5
558
330
1F
100
AcDbEntity
  8
0
100
AcDbLine
 10
-17.01718666231414
 20
-9.397989184703305
 30
0.0
 11
-17.01718666231414
 21
-9.960489184703305
 31
0.0
  0
ARC
  5
559
330
1F
100
AcDbEntity
  8
0
100
AcDbCircle
 10
-18.95468666231414
 20
-9.647989184703305
 30
0.0
 40
0.25
100
AcDbArc
 50
90.0
 51
180.0
  0
ARC
  5
55A
330
1F
100
AcDbEntity
  8
0
100
AcDbCircle
 10
-18.95468666231414
 20
-9.647989184703305
 30
0.0
 40
0.4375
100
AcDbArc
 50
90.0
 51
180.0
  0
LINE
  5
55B
330
1F
100
AcDbEntity
  8
0
100
AcDbLine
 10
-16.26718666231414
 20
-9.960489184703305
 30
0.0
 11
-17.01718666231414
 21
-9.960489184703305
 31
0.0
  0
LINE
  5
55C
330
1F
100
AcDbEntity
  8
0
100
AcDbLine
 10
127.7520496315093
 20
-10.3354891847033
 30
0.0
 11
127.7520496315093
 21
-56.96048918470353
 31
0.0
  0
ARC
  5
55D
330
1F
100
AcDbEntity
  8
0
100
AcDbCircle
 10
127.3770496315093
 20
-10.3354891847033
 30
0.0
 40
0.375
100
AcDbArc
 50
0.0
 51
90.0
  0
LINE
  5
55E
330
1F
100
AcDbEntity
  8
0
100
AcDbLine
 10
127.7520496315093
 20
-56.96048918470353
 30
0.0
 11
127.5728073674468
 21
-56.96048918470353
 31
0.0
  0
LINE
  5
55F
330
1F
100
AcDbEntity
  8
0
100
AcDbLine
 10
125.0728073674469
 20
-56.96048918470353
 30
0.0
 11
92.75204963150928
 21
-56.96048918470353
 31
0.0
  0
LINE
  5
560
330
1F
100
AcDbEntity
  8
0
100
AcDbLine
 10
127.3770496315093
 20
-9.960489184703305
 30
0.0
 11
92.7520496315093
 21
-9.960489184703305
 31
0.0
  0
LINE
  5
561
330
1F
100
AcDbEntity
  8
0
100
AcDbLine
 10
92.3770496315093
 20
-10.3354891847033
 30
0.0
 11
92.37704963150928
 21
-56.58548918470353
 31
0.0
  0
ARC
  5
562
330
1F
100
AcDbEntity
  8
0
100
AcDbCircle
 10
92.75204963150928
 20
-56.58548918470353
 30
0.0
 40
0.375
100
AcDbArc
 50
180.0
 51
269.9999999999996
  0
ARC
  5
563
330
1F
100
AcDbEntity
  8
0
100
AcDbCircle
 10
92.7520496315093
 20
-10.3354891847033
 30
0.0
 40
0.375
100
AcDbArc
 50
90.0
 51
180.0
  0
LINE
  5
564
330
1F
100
AcDbEntity
  8
0
100
AcDbLine
 10
127.9598904805327
 20
-57.57045116575807
 30
0.0
 11
127.9598904805327
 21
-52.96075267435174
 31
0.0
  0
LINE
  5
565
330
1F
100
AcDbEntity
  8
0
100
AcDbLine
 10
128.1270496315093
 20
-57.57045116575807
 30
0.0
 11
128.1270496315093
 21
-52.96075267435174
 31
0.0
  0
LINE
  5
566
330
1F
100
AcDbEntity
  8
0
100
AcDbLine
 10
126.3770496315093
 20
-57.79333003372665
 30
0.0
 11
127.7370116125639
 21
-57.79333003372665
 31
0.0
  0
LINE
  5
567
330
1F
100
AcDbEntity
  8
0
100
AcDbLine
 10
126.3770496315093
 20
-57.9604891847033
 30
0.0
 11
127.7370116125639
 21
-57.9604891847033
 31
0.0
  0
CIRCLE
  5
568
330
1F
100
AcDbEntity
  8
0
100
AcDbCircle
 10
126.3283611185954
 20
-56.67893569388309
 30
0.0
 40
0.1671591509765625
  0
LINE
  5
569
330
1F
100
AcDbEntity
  8
0
100
AcDbLine
 10
125.0728073674469
 20
-57.1479891847033
 30
0.0
 11
127.5728073674469
 21
-57.1479891847033
 31
0.0
  0
LINE
  5
56A
330
1F
100
AcDbEntity
  8
0
100
AcDbLine
 10
125.0728073674469
 20
-55.1479891847033
 30
0.0
 11
127.5728073674469
 21
-55.1479891847033
 31
0.0
  0
LINE
  5
56B
330
1F
100
AcDbEntity
  8
0
100
AcDbLine
 10
126.3770496315093
 20
-57.9604891847033
 30
0.0
 11
126.3770496315093
 21
-57.79333003372665
 31
0.0
  0
CIRCLE
  5
56C
330
1F
100
AcDbEntity
  8
0
100
AcDbCircle
 10
125.380860781672
 20
-55.49534401706194
 30
0.0
 40
0.1671591509765625
  0
CIRCLE
  5
56D
330
1F
100
AcDbEntity
  8
0
100
AcDbCircle
 10
127.2753311594064
 20
-55.49534401706194
 30
0.0
 40
0.1671591509765625
  0
ARC
  5
56E
330
1F
100
AcDbEntity
  8
0
100
AcDbCircle
 10
127.7370116125639
 20
-57.57045116575807
 30
0.0
 40
0.3900380189453125
100
AcDbArc
 50
270.0
 51
0.0
  0
ARC
  5
56F
330
1F
100
AcDbEntity
  8
0
100
AcDbCircle
 10
127.7370116125639
 20
-57.57045116575807
 30
0.0
 40
0.22287886796875
100
AcDbArc
 50
270.0
 51
0.0
  0
LINE
  5
570
330
1F
100
AcDbEntity
  8
0
100
AcDbLine
 10
127.9598904805327
 20
-52.96075267435174
 30
0.0
 11
128.1270496315093
 21
-52.96075267435174
 31
0.0
  0
LINE
  5
571
330
1F
100
AcDbEntity
  8
0
100
AcDbLine
 10
127.3770496315093
 20
-57.1479891847033
 30
0.0
 11
127.3770496315093
 21
-57.79333003372665
 31
0.0
  0
LINE
  5
572
330
1F
100
AcDbEntity
  8
0
100
AcDbLine
 10
126.8770496315093
 20
-57.1479891847033
 30
0.0
 11
126.8770496315093
 21
-57.79333003372665
 31
0.0
  0
LINE
  5
573
330
1F
100
AcDbEntity
  8
0
100
AcDbLine
 10
125.0728073674469
 20
-57.1479891847033
 30
0.0
 11
125.0728073674469
 21
-55.1479891847033
 31
0.0
  0
LINE
  5
574
330
1F
100
AcDbEntity
  8
0
100
AcDbLine
 10
127.5728073674469
 20
-57.1479891847033
 30
0.0
 11
127.5728073674469
 21
-55.1479891847033
 31
0.0
  0
LINE
  5
575
330
1F
100
AcDbEntity
  8
0
100
AcDbLine
 10
126.8404651147233
 20
-12.9604891847033
 30
0.0
 11
123.5830577160623
 21
-12.9604891847033
 31
0.0
  0
TEXT
  5
576
330
1F
100
AcDbEntity
  8
0
100
AcDbText
 10
124.0535227639922
 20
-11.57575396286177
 30
0.0
 40
0.3415300458080503
  1
ELIASON
 50
0.0000000000016284
  7
Text
100
AcDbText
  0
LINE
  5
577
330
1F
100
AcDbEntity
  8
0
100
AcDbLine
 10
123.5830577160623
 20
-12.9604891847033
 30
0.0
 11
123.5830577160623
 21
-9.960489184703305
 31
0.0
  0
LINE
  5
578
330
1F
100
AcDbEntity
  8
0
100
AcDbLine
 10
127.9395496315093
 20
-9.647989184703305
 30
0.0
 11
127.9395496315093
 21
-13.2104891847033
 31
0.0
  0
LINE
  5
579
330
1F
100
AcDbEntity
  8
0
100
AcDbLine
 10
126.8404651147233
 20
-9.960489184703305
 30
0.0
 11
126.8404651147233
 21
-12.9604891847033
 31
0.0
  0
LINE
  5
57A
330
1F
100
AcDbEntity
  8
0
100
AcDbLine
 10
128.1270496315093
 20
-13.2104891847033
 30
0.0
 11
127.9395496315093
 21
-13.2104891847033
 31
0.0
  0
LINE
  5
57B
330
1F
100
AcDbEntity
  8
0
100
AcDbLine
 10
127.6895496315093
 20
-9.397989184703305
 30
0.0
 11
124.3770496315093
 21
-9.397989184703305
 31
0.0
  0
LINE
  5
57C
330
1F
100
AcDbEntity
  8
0
100
AcDbLine
 10
127.6895496315093
 20
-9.210489184703305
 30
0.0
 11
124.3770496315093
 21
-9.210489184703305
 31
0.0
  0
LINE
  5
57D
330
1F
100
AcDbEntity
  8
0
100
AcDbLine
 10
124.3770496315093
 20
-9.397989184703305
 30
0.0
 11
124.3770496315093
 21
-9.210489184703305
 31
0.0
  0
LINE
  5
57E
330
1F
100
AcDbEntity
  8
0
100
AcDbLine
 10
125.0020496315093
 20
-9.397989184703305
 30
0.0
 11
125.0020496315093
 21
-9.960489184703305
 31
0.0
  0
LINE
  5
57F
330
1F
100
AcDbEntity
  8
0
100
AcDbLine
 10
125.7520496315093
 20
-9.397989184703305
 30
0.0
 11
125.7520496315093
 21
-9.960489184703305
 31
0.0
  0
ARC
  5
580
330
1F
100
AcDbEntity
  8
0
100
AcDbCircle
 10
127.6895496315093
 20
-9.647989184703305
 30
0.0
 40
0.25
100
AcDbArc
 50
0.0
 51
90.0
  0
ARC
  5
581
330
1F
100
AcDbEntity
  8
0
100
AcDbCircle
 10
127.6895496315093
 20
-9.647989184703305
 30
0.0
 40
0.4375
100
AcDbArc
 50
0.0
 51
90.0
  0
LINE
  5
582
330
1F
100
AcDbEntity
  8
0
100
AcDbLine
 10
125.0020496315093
 20
-9.960489184703305
 30
0.0
 11
125.7520496315093
 21
-9.960489184703305
 31
0.0
  0
ENDSEC
  0
SECTION
  2
OBJECTS
  0
DICTIONARY
  5
C
330
0
100
AcDbDictionary
281
     1
  3
ACAD_COLOR
350
73
  3
ACAD_GROUP
350
D
  3
ACAD_LAYOUT
350
1A
  3
ACAD_MATERIAL
350
72
  3
ACAD_MLINESTYLE
350
17
  3
ACAD_PLOTSETTINGS
350
19
  3
ACAD_PLOTSTYLENAME
350
E
  3
ACAD_TABLESTYLE
350
86
  3
ACDBHEADERROUNDTRIPXREC
350
58E
  3
AcDbVariableDictionary
350
66
  0
DICTIONARY
  5
73
102
{ACAD_REACTORS
330
C
102
}
330
C
100
AcDbDictionary
281
     1
  0
DICTIONARY
  5
D
102
{ACAD_REACTORS
330
C
102
}
330
C
100
AcDbDictionary
281
     1
  0
DICTIONARY
  5
1A
102
{ACAD_REACTORS
330
C
102
}
330
C
100
AcDbDictionary
281
     1
  3
Layout1
350
59
  3
Layout2
350
5E
  3
Model
350
22
  0
DICTIONARY
  5
72
102
{ACAD_REACTORS
330
C
102
}
330
C
100
AcDbDictionary
281
     1
  0
DICTIONARY
  5
17
102
{ACAD_REACTORS
330
C
102
}
330
C
100
AcDbDictionary
281
     1
  3
Standard
350
18
  0
DICTIONARY
  5
19
102
{ACAD_REACTORS
330
C
102
}
330
C
100
AcDbDictionary
281
     1
  0
ACDBDICTIONARYWDFLT
  5
E
102
{ACAD_REACTORS
330
C
102
}
330
C
100
AcDbDictionary
281
     1
  3
Normal
350
F
100
AcDbDictionaryWithDefault
340
F
  0
DICTIONARY
  5
86
102
{ACAD_REACTORS
330
C
102
}
330
C
100
AcDbDictionary
281
     1
  3
Standard
350
87
  0
DICTIONARY
  5
58E
102
{ACAD_REACTORS
330
C
102
}
330
C
100
AcDbDictionary
281
     1
  0
DICTIONARY
  5
66
102
{ACAD_REACTORS
330
C
102
}
330
C
100
AcDbDictionary
281
     1
  3
CTABLESTYLE
350
47D
  3
DIMASSOC
350
67
  3
HIDETEXT
350
6B
  3
PROJECTNAME
350
58C
  0
LAYOUT
  5
59
102
{ACAD_XDICTIONARY
360
591
102
}
102
{ACAD_REACTORS
330
1A
102
}
330
1A
100
AcDbPlotSettings
  1

  2
None
  4

  6

 40
0.0
 41
0.0
 42
0.0
 43
0.0
 44
0.0
 45
0.0
 46
0.0
 47
0.0
 48
0.0
 49
0.0
140
0.0
141
0.0
142
1.0
143
1.0
 70
   688
 72
     0
 73
     0
 74
     5
  7

 75
    16
147
1.0
148
0.0
149
0.0
100
AcDbLayout
  1
Layout1
 70
     1
 71
     1
 10
0.0
 20
0.0
 11
12.0
 21
9.0
 12
0.0
 22
0.0
 32
0.0
 14
0.0
 24
0.0
 34
0.0
 15
0.0
 25
0.0
 35
0.0
146
0.0
 13
0.0
 23
0.0
 33
0.0
 16
1.0
 26
0.0
 36
0.0
 17
0.0
 27
1.0
 37
0.0
 76
     0
330
58
  0
LAYOUT
  5
5E
102
{ACAD_XDICTIONARY
360
593
102
}
102
{ACAD_REACTORS
330
1A
102
}
330
1A
100
AcDbPlotSettings
  1

  2
None
  4

  6

 40
0.0
 41
0.0
 42
0.0
 43
0.0
 44
0.0
 45
0.0
 46
0.0
 47
0.0
 48
0.0
 49
0.0
140
0.0
141
0.0
142
1.0
143
1.0
 70
   688
 72
     0
 73
     0
 74
     5
  7

 75
    16
147
1.0
148
0.0
149
0.0
100
AcDbLayout
  1
Layout2
 70
     1
 71
     2
 10
0.0
 20
0.0
 11
12.0
 21
9.0
 12
0.0
 22
0.0
 32
0.0
 14
0.0
 24
0.0
 34
0.0
 15
0.0
 25
0.0
 35
0.0
146
0.0
 13
0.0
 23
0.0
 33
0.0
 16
1.0
 26
0.0
 36
0.0
 17
0.0
 27
1.0
 37
0.0
 76
     0
330
5D
  0
LAYOUT
  5
22
102
{ACAD_XDICTIONARY
360
58F
102
}
102
{ACAD_REACTORS
330
1A
102
}
330
1A
100
AcDbPlotSettings
  1

  2
none_device
  4
ANSI_A_(8.50_x_11.00_Inches)
  6

 40
6.349999904632568
 41
19.04999923706055
 42
6.350006103515625
 43
19.04998779296875
 44
215.8999938964844
 45
279.3999938964844
 46
0.0
 47
0.0
 48
0.0
 49
0.0
140
0.0
141
0.0
142
1.0
143
2.584895464708373
 70
 11952
 72
     0
 73
     1
 74
     0
  7

 75
     0
147
0.3868628397755418
148
0.0
149
0.0
100
AcDbLayout
  1
Model
 70
     1
 71
     0
 10
0.0
 20
0.0
 11
12.0
 21
9.0
 12
0.0
 22
0.0
 32
0.0
 14
0.0
 24
0.0
 34
0.0
 15
0.0
 25
0.0
 35
0.0
146
0.0
 13
0.0
 23
0.0
 33
0.0
 16
1.0
 26
0.0
 36
0.0
 17
0.0
 27
1.0
 37
0.0
 76
     0
330
1F
  0
MLINESTYLE
  5
18
102
{ACAD_REACTORS
330
17
102
}
330
17
100
AcDbMlineStyle
  2
STANDARD
 70
     0
  3

 62
   256
 51
90.0
 52
90.0
 71
     2
 49
0.5
 62
   256
  6
BYLAYER
 49
-0.5
 62
   256
  6
BYLAYER
  0
ACDBPLACEHOLDER
  5
F
102
{ACAD_REACTORS
330
E
102
}
330
E
  0
TABLESTYLE
  5
87
102
{ACAD_REACTORS
330
86
102
}
330
86
100
AcDbTableStyle
  3
Standard
 70
     0
 71
     0
 40
0.06
 41
0.06
280
     0
281
     0
  7
Standard
140
0.18
170
     2
 62
     0
 63
     7
283
     0
274
    -2
284
     1
 64
     0
275
    -2
285
     1
 65
     0
276
    -2
286
     1
 66
     0
277
    -2
287
     1
 67
     0
278
    -2
288
     1
 68
     0
279
    -2
289
     1
 69
     0
  7
Standard
140
0.25
170
     5
 62
     0
 63
     7
283
     0
274
    -2
284
     1
 64
     0
275
    -2
285
     1
 65
     0
276
    -2
286
     1
 66
     0
277
    -2
287
     1
 67
     0
278
    -2
288
     1
 68
     0
279
    -2
289
     1
 69
     0
  7
Standard
140
0.18
170
     5
 62
     0
 63
     7
283
     0
274
    -2
284
     1
 64
     0
275
    -2
285
     1
 65
     0
276
    -2
286
     1
 66
     0
277
    -2
287
     1
 67
     0
278
    -2
288
     1
 68
     0
279
    -2
289
     1
 69
     0
  0
DICTIONARYVAR
  5
47D
102
{ACAD_REACTORS
330
66
102
}
330
66
100
DictionaryVariables
280
     0
  1
STANDARD
  0
DICTIONARYVAR
  5
67
102
{ACAD_REACTORS
330
66
102
}
330
66
100
DictionaryVariables
280
     0
  1
2
  0
DICTIONARYVAR
  5
6B
102
{ACAD_REACTORS
330
66
102
}
330
66
100
DictionaryVariables
280
     0
  1
1
  0
DICTIONARYVAR
  5
58C
102
{ACAD_REACTORS
330
66
102
}
330
66
100
DictionaryVariables
280
     0
  1

  0
DICTIONARY
  5
591
330
59
100
AcDbDictionary
280
     1
281
     1
  3
ACAD_XREC_ROUNDTRIP
360
592
  0
DICTIONARY
  5
593
330
5E
100
AcDbDictionary
280
     1
281
     1
  3
ACAD_XREC_ROUNDTRIP
360
594
  0
DICTIONARY
  5
58F
330
22
100
AcDbDictionary
280
     1
281
     1
  3
ACAD_XREC_ROUNDTRIP
360
590
  0
XRECORD
  5
592
102
{ACAD_REACTORS
330
591
102
}
330
591
100
AcDbXrecord
280
     1
102
SHADEPLOT
 70
     0
102
SHADEPLOTRESLEVEL
 70
     2
102
SHADEPLOTCUSTOMDPI
 70
   300
  0
XRECORD
  5
594
102
{ACAD_REACTORS
330
593
102
}
330
593
100
AcDbXrecord
280
     1
102
SHADEPLOT
 70
     0
102
SHADEPLOTRESLEVEL
 70
     2
102
SHADEPLOTCUSTOMDPI
 70
   300
  0
XRECORD
  5
590
102
{ACAD_REACTORS
330
58F
102
}
330
58F
100
AcDbXrecord
280
     1
102
SHADEPLOT
 70
     0
102
SHADEPLOTRESLEVEL
 70
     2
102
SHADEPLOTCUSTOMDPI
 70
   300
  0
ENDSEC
  0
EOF
